ISO-10303-21;
HEADER;
FILE_DESCRIPTION(('STEP AP242'),'1');
FILE_NAME('4041219_V Sockel-Eckblenden H100 schwarz.STP','2024-02-16T09:20:21',(' '),(' '),'Spatial InterOp 3D',' ',' ');
FILE_SCHEMA(('AP242_MANAGED_MODEL_BASED_3D_ENGINEERING_MIM_LF  {1 0 10303 442 1 1 4}'));
ENDSEC;
DATA;
#1=PRODUCT_DEFINITION_CONTEXT('',#16,'design');
#2=APPLICATION_PROTOCOL_DEFINITION('INTERNATIONAL STANDARD','ap242_managed_model_based_3d_engineering',2014,#16);
#3=PRODUCT_CATEGORY_RELATIONSHIP('NONE','NONE',#17,#18);
#4=SHAPE_DEFINITION_REPRESENTATION(#19,#20);
#5=PRODUCT_DEFINITION_CONTEXT('',#21,'design');
#6=APPLICATION_PROTOCOL_DEFINITION('INTERNATIONAL STANDARD','ap242_managed_model_based_3d_engineering',2014,#21);
#7=PRODUCT_CATEGORY_RELATIONSHIP('NONE','NONE',#22,#23);
#8=CONTEXT_DEPENDENT_SHAPE_REPRESENTATION(#24,#25);
#9=SHAPE_DEFINITION_REPRESENTATION(#26,#27);
#10=SHAPE_REPRESENTATION_RELATIONSHIP('NONE','NONE',#27,#28);
#11=MECHANICAL_DESIGN_GEOMETRIC_PRESENTATION_REPRESENTATION(' ',(#29),#12);
#12= (GEOMETRIC_REPRESENTATION_CONTEXT(3)GLOBAL_UNCERTAINTY_ASSIGNED_CONTEXT((#32))GLOBAL_UNIT_ASSIGNED_CONTEXT((#34,#35,#36))REPRESENTATION_CONTEXT('NONE','WORKSPACE'));
#16=APPLICATION_CONTEXT('managed model based 3d engineering');
#17=PRODUCT_CATEGORY('part','NONE');
#18=PRODUCT_RELATED_PRODUCT_CATEGORY('detail',' ',(#38));
#19=PRODUCT_DEFINITION_SHAPE('NONE','NONE',#39);
#20=SHAPE_REPRESENTATION('4041219_V Sockel-Eckblenden H100 schwarz',(#40,#41),#42);
#21=APPLICATION_CONTEXT('managed model based 3d engineering');
#22=PRODUCT_CATEGORY('part','NONE');
#23=PRODUCT_RELATED_PRODUCT_CATEGORY('detail',' ',(#43));
#24=(REPRESENTATION_RELATIONSHIP('','',#27,#20)REPRESENTATION_RELATIONSHIP_WITH_TRANSFORMATION(#46)SHAPE_REPRESENTATION_RELATIONSHIP());
#25=PRODUCT_DEFINITION_SHAPE('NAUO-PROD-DEF','NAUO-PROD-DEF',#48);
#26=PRODUCT_DEFINITION_SHAPE('NONE','NONE',#49);
#27=SHAPE_REPRESENTATION('',(#40),#42);
#28=ADVANCED_BREP_SHAPE_REPRESENTATION('',(#50),#12);
#29=STYLED_ITEM('',(#51),#50);
#32=UNCERTAINTY_MEASURE_WITH_UNIT(LENGTH_MEASURE(1.0E-06),#34,'','');
#34= (CONVERSION_BASED_UNIT('MILLIMETRE',#54)LENGTH_UNIT()NAMED_UNIT(#57));
#35= (NAMED_UNIT(#59)PLANE_ANGLE_UNIT()SI_UNIT($,.RADIAN.));
#36= (NAMED_UNIT(#59)SOLID_ANGLE_UNIT()SI_UNIT($,.STERADIAN.));
#38=PRODUCT('4041219_V Sockel-Eckblenden H100 schwarz','4041219_V Sockel-Eckblenden H100 schwarz','PART--DESC',(#65));
#39=PRODUCT_DEFINITION('4041219_V Sockel-Eckblenden H100 schwarz','4041219_V Sockel-Eckblenden H100 schwarz',#66,#1);
#40=AXIS2_PLACEMENT_3D('',#67,#68,#69);
#41=AXIS2_PLACEMENT_3D('',#70,#71,#72);
#42= (GEOMETRIC_REPRESENTATION_CONTEXT(3)GLOBAL_UNCERTAINTY_ASSIGNED_CONTEXT((#75))GLOBAL_UNIT_ASSIGNED_CONTEXT((#77,#78,#79))REPRESENTATION_CONTEXT('NONE','WORKSPACE'));
#43=PRODUCT('ASSEM1','ASSEM1','PART-ASSEM1-DESC',(#81));
#46=ITEM_DEFINED_TRANSFORMATION('','',#40,#41);
#48=NEXT_ASSEMBLY_USAGE_OCCURRENCE('4041219_V Sockel-Eckblenden H100 schwarz','4041219_V Sockel-Eckblenden H100 schwarz','4041219_V Sockel-Eckblenden H100 schwarz',#39,#49,$);
#49=PRODUCT_DEFINITION('','NONE',#82,#5);
#50=MANIFOLD_SOLID_BREP('',#83);
#51=PRESENTATION_STYLE_ASSIGNMENT((#84));
#54=LENGTH_MEASURE_WITH_UNIT(LENGTH_MEASURE(1.0),#85);
#57=DIMENSIONAL_EXPONENTS(1.0,0.0,0.0,0.0,0.0,0.0,0.0);
#59=DIMENSIONAL_EXPONENTS(0.0,0.0,0.0,0.0,0.0,0.0,0.0);
#65=PRODUCT_CONTEXT('',#16,'mechanical');
#66=PRODUCT_DEFINITION_FORMATION_WITH_SPECIFIED_SOURCE(' ','NONE',#38,.NOT_KNOWN.);
#67=CARTESIAN_POINT('',(0.0,0.0,0.0));
#68=DIRECTION('',(0.0,0.0,1.0));
#69=DIRECTION('',(1.0,0.0,0.0));
#70=CARTESIAN_POINT('',(0.0,0.0,0.0));
#71=DIRECTION('',(0.0,0.0,1.0));
#72=DIRECTION('',(1.0,0.0,0.0));
#75=UNCERTAINTY_MEASURE_WITH_UNIT(LENGTH_MEASURE(1.0E-06),#77,'','');
#77= (CONVERSION_BASED_UNIT('MILLIMETRE',#88)LENGTH_UNIT()NAMED_UNIT(#91));
#78= (NAMED_UNIT(#93)PLANE_ANGLE_UNIT()SI_UNIT($,.RADIAN.));
#79= (NAMED_UNIT(#93)SOLID_ANGLE_UNIT()SI_UNIT($,.STERADIAN.));
#81=PRODUCT_CONTEXT('',#21,'mechanical');
#82=PRODUCT_DEFINITION_FORMATION_WITH_SPECIFIED_SOURCE(' ','NONE',#43,.NOT_KNOWN.);
#83=CLOSED_SHELL('',(#99,#100,#101,#102,#103,#104,#105,#106,#107,#108,#109,#110,#111,#112,#113,#114,#115,#116));
#84=CURVE_STYLE('',#117,POSITIVE_LENGTH_MEASURE(0.1),#118);
#85= (NAMED_UNIT(#57)LENGTH_UNIT()SI_UNIT(.MILLI.,.METRE.));
#88=LENGTH_MEASURE_WITH_UNIT(LENGTH_MEASURE(1.0),#120);
#91=DIMENSIONAL_EXPONENTS(1.0,0.0,0.0,0.0,0.0,0.0,0.0);
#93=DIMENSIONAL_EXPONENTS(0.0,0.0,0.0,0.0,0.0,0.0,0.0);
#99=ADVANCED_FACE('',(#121),#122,.T.);
#100=ADVANCED_FACE('',(#123),#124,.T.);
#101=ADVANCED_FACE('',(#125),#126,.T.);
#102=ADVANCED_FACE('',(#127),#128,.F.);
#103=ADVANCED_FACE('',(#129),#130,.T.);
#104=ADVANCED_FACE('',(#131),#132,.T.);
#105=ADVANCED_FACE('',(#133),#134,.T.);
#106=ADVANCED_FACE('',(#135),#136,.T.);
#107=ADVANCED_FACE('',(#137),#138,.T.);
#108=ADVANCED_FACE('',(#139),#140,.T.);
#109=ADVANCED_FACE('',(#141),#142,.T.);
#110=ADVANCED_FACE('',(#143),#144,.T.);
#111=ADVANCED_FACE('',(#145),#146,.T.);
#112=ADVANCED_FACE('',(#147),#148,.T.);
#113=ADVANCED_FACE('',(#149),#150,.T.);
#114=ADVANCED_FACE('',(#151),#152,.T.);
#115=ADVANCED_FACE('',(#153),#154,.T.);
#116=ADVANCED_FACE('',(#155),#156,.T.);
#117=DRAUGHTING_PRE_DEFINED_CURVE_FONT('continuous');
#118=COLOUR_RGB('',1.0,1.0,1.0);
#120= (NAMED_UNIT(#91)LENGTH_UNIT()SI_UNIT(.MILLI.,.METRE.));
#121=FACE_OUTER_BOUND('',#158,.T.);
#122=CYLINDRICAL_SURFACE('',#159,1.0);
#123=FACE_OUTER_BOUND('',#160,.T.);
#124=CYLINDRICAL_SURFACE('',#161,1.0);
#125=FACE_OUTER_BOUND('',#162,.T.);
#126=PLANE('',#163);
#127=FACE_OUTER_BOUND('',#164,.T.);
#128=PLANE('',#165);
#129=FACE_OUTER_BOUND('',#166,.T.);
#130=PLANE('',#167);
#131=FACE_OUTER_BOUND('',#168,.T.);
#132=PLANE('',#169);
#133=FACE_OUTER_BOUND('',#170,.T.);
#134=PLANE('',#171);
#135=FACE_OUTER_BOUND('',#172,.T.);
#136=PLANE('',#173);
#137=FACE_OUTER_BOUND('',#174,.T.);
#138=PLANE('',#175);
#139=FACE_OUTER_BOUND('',#176,.T.);
#140=PLANE('',#177);
#141=FACE_OUTER_BOUND('',#178,.T.);
#142=PLANE('',#179);
#143=FACE_OUTER_BOUND('',#180,.T.);
#144=PLANE('',#181);
#145=FACE_OUTER_BOUND('',#182,.T.);
#146=PLANE('',#183);
#147=FACE_OUTER_BOUND('',#184,.T.);
#148=PLANE('',#185);
#149=FACE_OUTER_BOUND('',#186,.T.);
#150=PLANE('',#187);
#151=FACE_OUTER_BOUND('',#188,.T.);
#152=PLANE('',#189);
#153=FACE_OUTER_BOUND('',#190,.T.);
#154=PLANE('',#191);
#155=FACE_OUTER_BOUND('',#192,.T.);
#156=PLANE('',#193);
#158=EDGE_LOOP('',(#194,#195,#196,#197));
#159=AXIS2_PLACEMENT_3D('',#198,#199,#200);
#160=EDGE_LOOP('',(#201,#202,#203,#204));
#161=AXIS2_PLACEMENT_3D('',#205,#206,#207);
#162=EDGE_LOOP('',(#208,#209,#210,#211));
#163=AXIS2_PLACEMENT_3D('',#212,#213,#214);
#164=EDGE_LOOP('',(#215,#216,#217,#218,#219,#220,#221,#222,#223,#224,#225,#226,#227,#228,#229,#230));
#165=AXIS2_PLACEMENT_3D('',#231,#232,#233);
#166=EDGE_LOOP('',(#234,#235,#236,#237));
#167=AXIS2_PLACEMENT_3D('',#238,#239,#240);
#168=EDGE_LOOP('',(#241,#242,#243,#244));
#169=AXIS2_PLACEMENT_3D('',#245,#246,#247);
#170=EDGE_LOOP('',(#248,#249,#250,#251));
#171=AXIS2_PLACEMENT_3D('',#252,#253,#254);
#172=EDGE_LOOP('',(#255,#256,#257,#258));
#173=AXIS2_PLACEMENT_3D('',#259,#260,#261);
#174=EDGE_LOOP('',(#262,#263,#264,#265));
#175=AXIS2_PLACEMENT_3D('',#266,#267,#268);
#176=EDGE_LOOP('',(#269,#270,#271,#272));
#177=AXIS2_PLACEMENT_3D('',#273,#274,#275);
#178=EDGE_LOOP('',(#276,#277,#278,#279));
#179=AXIS2_PLACEMENT_3D('',#280,#281,#282);
#180=EDGE_LOOP('',(#283,#284,#285,#286));
#181=AXIS2_PLACEMENT_3D('',#287,#288,#289);
#182=EDGE_LOOP('',(#290,#291,#292,#293));
#183=AXIS2_PLACEMENT_3D('',#294,#295,#296);
#184=EDGE_LOOP('',(#297,#298,#299,#300));
#185=AXIS2_PLACEMENT_3D('',#301,#302,#303);
#186=EDGE_LOOP('',(#304,#305,#306,#307));
#187=AXIS2_PLACEMENT_3D('',#308,#309,#310);
#188=EDGE_LOOP('',(#311,#312,#313,#314));
#189=AXIS2_PLACEMENT_3D('',#315,#316,#317);
#190=EDGE_LOOP('',(#318,#319,#320,#321));
#191=AXIS2_PLACEMENT_3D('',#322,#323,#324);
#192=EDGE_LOOP('',(#325,#326,#327,#328,#329,#330,#331,#332,#333,#334,#335,#336,#337,#338,#339,#340));
#193=AXIS2_PLACEMENT_3D('',#341,#342,#343);
#194=ORIENTED_EDGE('',*,*,#344,.F.);
#195=ORIENTED_EDGE('',*,*,#345,.T.);
#196=ORIENTED_EDGE('',*,*,#346,.T.);
#197=ORIENTED_EDGE('',*,*,#347,.T.);
#198=CARTESIAN_POINT('',(-16.0,14.5,0.0));
#199=DIRECTION('',(0.0,0.0,-1.0));
#200=DIRECTION('',(-0.707106781186548,0.707106781186548,0.0));
#201=ORIENTED_EDGE('',*,*,#344,.T.);
#202=ORIENTED_EDGE('',*,*,#348,.T.);
#203=ORIENTED_EDGE('',*,*,#349,.T.);
#204=ORIENTED_EDGE('',*,*,#350,.T.);
#205=CARTESIAN_POINT('',(-16.0,14.5,0.0));
#206=DIRECTION('',(0.0,0.0,-1.0));
#207=DIRECTION('',(-0.707106781186548,0.707106781186548,0.0));
#208=ORIENTED_EDGE('',*,*,#349,.F.);
#209=ORIENTED_EDGE('',*,*,#351,.T.);
#210=ORIENTED_EDGE('',*,*,#352,.T.);
#211=ORIENTED_EDGE('',*,*,#353,.T.);
#212=CARTESIAN_POINT('',(-17.0,-11.5,0.0));
#213=DIRECTION('',(-1.0,-1.644774851297E-16,0.0));
#214=DIRECTION('',(-1.644774851297E-16,1.0,0.0));
#215=ORIENTED_EDGE('',*,*,#347,.F.);
#216=ORIENTED_EDGE('',*,*,#354,.F.);
#217=ORIENTED_EDGE('',*,*,#355,.F.);
#218=ORIENTED_EDGE('',*,*,#356,.F.);
#219=ORIENTED_EDGE('',*,*,#357,.F.);
#220=ORIENTED_EDGE('',*,*,#358,.F.);
#221=ORIENTED_EDGE('',*,*,#359,.F.);
#222=ORIENTED_EDGE('',*,*,#360,.F.);
#223=ORIENTED_EDGE('',*,*,#361,.F.);
#224=ORIENTED_EDGE('',*,*,#362,.F.);
#225=ORIENTED_EDGE('',*,*,#363,.F.);
#226=ORIENTED_EDGE('',*,*,#364,.F.);
#227=ORIENTED_EDGE('',*,*,#365,.F.);
#228=ORIENTED_EDGE('',*,*,#366,.F.);
#229=ORIENTED_EDGE('',*,*,#351,.F.);
#230=ORIENTED_EDGE('',*,*,#348,.F.);
#231=CARTESIAN_POINT('',(-5.315642458101,4.898044692737,-47.5));
#232=DIRECTION('',(0.0,0.0,1.0));
#233=DIRECTION('',(1.0,0.0,0.0));
#234=ORIENTED_EDGE('',*,*,#346,.F.);
#235=ORIENTED_EDGE('',*,*,#367,.T.);
#236=ORIENTED_EDGE('',*,*,#368,.F.);
#237=ORIENTED_EDGE('',*,*,#354,.T.);
#238=CARTESIAN_POINT('',(-17.0,15.5,0.0));
#239=DIRECTION('',(-8.223874256483E-17,1.0,0.0));
#240=DIRECTION('',(1.0,8.223874256483E-17,-0.0));
#241=ORIENTED_EDGE('',*,*,#369,.T.);
#242=ORIENTED_EDGE('',*,*,#370,.F.);
#243=ORIENTED_EDGE('',*,*,#355,.T.);
#244=ORIENTED_EDGE('',*,*,#368,.T.);
#245=CARTESIAN_POINT('',(10.0,15.5,0.0));
#246=DIRECTION('',(1.0,0.0,0.0));
#247=DIRECTION('',(0.0,1.0,0.0));
#248=ORIENTED_EDGE('',*,*,#371,.T.);
#249=ORIENTED_EDGE('',*,*,#372,.F.);
#250=ORIENTED_EDGE('',*,*,#356,.T.);
#251=ORIENTED_EDGE('',*,*,#370,.T.);
#252=CARTESIAN_POINT('',(10.0,14.0,0.0));
#253=DIRECTION('',(0.0,-1.0,0.0));
#254=DIRECTION('',(0.0,0.0,-1.0));
#255=ORIENTED_EDGE('',*,*,#373,.T.);
#256=ORIENTED_EDGE('',*,*,#374,.F.);
#257=ORIENTED_EDGE('',*,*,#357,.T.);
#258=ORIENTED_EDGE('',*,*,#372,.T.);
#259=CARTESIAN_POINT('',(0.0,14.0,0.0));
#260=DIRECTION('',(1.0,0.0,0.0));
#261=DIRECTION('',(0.0,1.0,0.0));
#262=ORIENTED_EDGE('',*,*,#375,.T.);
#263=ORIENTED_EDGE('',*,*,#376,.F.);
#264=ORIENTED_EDGE('',*,*,#358,.T.);
#265=ORIENTED_EDGE('',*,*,#374,.T.);
#266=CARTESIAN_POINT('',(0.0,-1.110223024625E-15,0.0));
#267=DIRECTION('',(-1.110223024625E-16,1.0,0.0));
#268=DIRECTION('',(1.0,1.110223024625E-16,-0.0));
#269=ORIENTED_EDGE('',*,*,#377,.T.);
#270=ORIENTED_EDGE('',*,*,#378,.F.);
#271=ORIENTED_EDGE('',*,*,#359,.T.);
#272=ORIENTED_EDGE('',*,*,#376,.T.);
#273=CARTESIAN_POINT('',(10.0,0.0,0.0));
#274=DIRECTION('',(1.0,0.0,0.0));
#275=DIRECTION('',(0.0,1.0,0.0));
#276=ORIENTED_EDGE('',*,*,#379,.T.);
#277=ORIENTED_EDGE('',*,*,#380,.F.);
#278=ORIENTED_EDGE('',*,*,#360,.T.);
#279=ORIENTED_EDGE('',*,*,#378,.T.);
#280=CARTESIAN_POINT('',(10.0,-1.5,0.0));
#281=DIRECTION('',(-8.326672684689E-17,-1.0,0.0));
#282=DIRECTION('',(-1.0,8.326672684689E-17,0.0));
#283=ORIENTED_EDGE('',*,*,#381,.T.);
#284=ORIENTED_EDGE('',*,*,#382,.F.);
#285=ORIENTED_EDGE('',*,*,#361,.T.);
#286=ORIENTED_EDGE('',*,*,#380,.T.);
#287=CARTESIAN_POINT('',(0.0,-1.5,0.0));
#288=DIRECTION('',(1.0,0.0,0.0));
#289=DIRECTION('',(0.0,1.0,0.0));
#290=ORIENTED_EDGE('',*,*,#383,.T.);
#291=ORIENTED_EDGE('',*,*,#384,.F.);
#292=ORIENTED_EDGE('',*,*,#362,.T.);
#293=ORIENTED_EDGE('',*,*,#382,.T.);
#294=CARTESIAN_POINT('',(0.0,-11.5,0.0));
#295=DIRECTION('',(0.0,-1.0,0.0));
#296=DIRECTION('',(0.0,0.0,-1.0));
#297=ORIENTED_EDGE('',*,*,#385,.T.);
#298=ORIENTED_EDGE('',*,*,#386,.F.);
#299=ORIENTED_EDGE('',*,*,#363,.T.);
#300=ORIENTED_EDGE('',*,*,#384,.T.);
#301=CARTESIAN_POINT('',(-1.5,-11.5,0.0));
#302=DIRECTION('',(-1.0,-9.796085511398E-17,0.0));
#303=DIRECTION('',(-9.796085511398E-17,1.0,0.0));
#304=ORIENTED_EDGE('',*,*,#387,.T.);
#305=ORIENTED_EDGE('',*,*,#388,.F.);
#306=ORIENTED_EDGE('',*,*,#364,.T.);
#307=ORIENTED_EDGE('',*,*,#386,.T.);
#308=CARTESIAN_POINT('',(-1.5,14.0,0.0));
#309=DIRECTION('',(0.0,-1.0,0.0));
#310=DIRECTION('',(0.0,0.0,-1.0));
#311=ORIENTED_EDGE('',*,*,#389,.T.);
#312=ORIENTED_EDGE('',*,*,#390,.F.);
#313=ORIENTED_EDGE('',*,*,#365,.T.);
#314=ORIENTED_EDGE('',*,*,#388,.T.);
#315=CARTESIAN_POINT('',(-15.5,14.0,0.0));
#316=DIRECTION('',(1.0,0.0,0.0));
#317=DIRECTION('',(0.0,1.0,0.0));
#318=ORIENTED_EDGE('',*,*,#391,.T.);
#319=ORIENTED_EDGE('',*,*,#352,.F.);
#320=ORIENTED_EDGE('',*,*,#366,.T.);
#321=ORIENTED_EDGE('',*,*,#390,.T.);
#322=CARTESIAN_POINT('',(-15.5,-11.5,0.0));
#323=DIRECTION('',(-1.480297366167E-15,-1.0,0.0));
#324=DIRECTION('',(-1.0,1.480297366167E-15,0.0));
#325=ORIENTED_EDGE('',*,*,#350,.F.);
#326=ORIENTED_EDGE('',*,*,#353,.F.);
#327=ORIENTED_EDGE('',*,*,#391,.F.);
#328=ORIENTED_EDGE('',*,*,#389,.F.);
#329=ORIENTED_EDGE('',*,*,#387,.F.);
#330=ORIENTED_EDGE('',*,*,#385,.F.);
#331=ORIENTED_EDGE('',*,*,#383,.F.);
#332=ORIENTED_EDGE('',*,*,#381,.F.);
#333=ORIENTED_EDGE('',*,*,#379,.F.);
#334=ORIENTED_EDGE('',*,*,#377,.F.);
#335=ORIENTED_EDGE('',*,*,#375,.F.);
#336=ORIENTED_EDGE('',*,*,#373,.F.);
#337=ORIENTED_EDGE('',*,*,#371,.F.);
#338=ORIENTED_EDGE('',*,*,#369,.F.);
#339=ORIENTED_EDGE('',*,*,#367,.F.);
#340=ORIENTED_EDGE('',*,*,#345,.F.);
#341=CARTESIAN_POINT('',(-5.315642458101,4.898044692737,47.5));
#342=DIRECTION('',(0.0,0.0,1.0));
#343=DIRECTION('',(1.0,0.0,0.0));
#344=EDGE_CURVE('',#392,#393,#394,.T.);
#345=EDGE_CURVE('',#392,#395,#396,.T.);
#346=EDGE_CURVE('',#395,#397,#398,.T.);
#347=EDGE_CURVE('',#397,#393,#399,.T.);
#348=EDGE_CURVE('',#393,#400,#401,.T.);
#349=EDGE_CURVE('',#400,#402,#403,.T.);
#350=EDGE_CURVE('',#402,#392,#404,.T.);
#351=EDGE_CURVE('',#400,#405,#406,.T.);
#352=EDGE_CURVE('',#405,#407,#408,.T.);
#353=EDGE_CURVE('',#407,#402,#409,.T.);
#354=EDGE_CURVE('',#410,#397,#411,.T.);
#355=EDGE_CURVE('',#412,#410,#413,.T.);
#356=EDGE_CURVE('',#414,#412,#415,.T.);
#357=EDGE_CURVE('',#416,#414,#417,.T.);
#358=EDGE_CURVE('',#418,#416,#419,.T.);
#359=EDGE_CURVE('',#420,#418,#421,.T.);
#360=EDGE_CURVE('',#422,#420,#423,.T.);
#361=EDGE_CURVE('',#424,#422,#425,.T.);
#362=EDGE_CURVE('',#426,#424,#427,.T.);
#363=EDGE_CURVE('',#428,#426,#429,.T.);
#364=EDGE_CURVE('',#430,#428,#431,.T.);
#365=EDGE_CURVE('',#432,#430,#433,.T.);
#366=EDGE_CURVE('',#405,#432,#434,.T.);
#367=EDGE_CURVE('',#395,#435,#436,.T.);
#368=EDGE_CURVE('',#410,#435,#437,.T.);
#369=EDGE_CURVE('',#435,#438,#439,.T.);
#370=EDGE_CURVE('',#412,#438,#440,.T.);
#371=EDGE_CURVE('',#438,#441,#442,.T.);
#372=EDGE_CURVE('',#414,#441,#443,.T.);
#373=EDGE_CURVE('',#441,#444,#445,.T.);
#374=EDGE_CURVE('',#416,#444,#446,.T.);
#375=EDGE_CURVE('',#444,#447,#448,.T.);
#376=EDGE_CURVE('',#418,#447,#449,.T.);
#377=EDGE_CURVE('',#447,#450,#451,.T.);
#378=EDGE_CURVE('',#420,#450,#452,.T.);
#379=EDGE_CURVE('',#450,#453,#454,.T.);
#380=EDGE_CURVE('',#422,#453,#455,.T.);
#381=EDGE_CURVE('',#453,#456,#457,.T.);
#382=EDGE_CURVE('',#424,#456,#458,.T.);
#383=EDGE_CURVE('',#456,#459,#460,.T.);
#384=EDGE_CURVE('',#426,#459,#461,.T.);
#385=EDGE_CURVE('',#459,#462,#463,.T.);
#386=EDGE_CURVE('',#428,#462,#464,.T.);
#387=EDGE_CURVE('',#462,#465,#466,.T.);
#388=EDGE_CURVE('',#430,#465,#467,.T.);
#389=EDGE_CURVE('',#465,#468,#469,.T.);
#390=EDGE_CURVE('',#432,#468,#470,.T.);
#391=EDGE_CURVE('',#468,#407,#471,.T.);
#392=VERTEX_POINT('',#472);
#393=VERTEX_POINT('',#473);
#394=LINE('',#474,#475);
#395=VERTEX_POINT('',#476);
#396=CIRCLE('',#477,1.0);
#397=VERTEX_POINT('',#478);
#398=LINE('',#479,#480);
#399=CIRCLE('',#481,1.0);
#400=VERTEX_POINT('',#482);
#401=CIRCLE('',#483,1.0);
#402=VERTEX_POINT('',#484);
#403=LINE('',#485,#486);
#404=CIRCLE('',#487,1.0);
#405=VERTEX_POINT('',#488);
#406=LINE('',#489,#490);
#407=VERTEX_POINT('',#491);
#408=LINE('',#492,#493);
#409=LINE('',#494,#495);
#410=VERTEX_POINT('',#496);
#411=LINE('',#497,#498);
#412=VERTEX_POINT('',#499);
#413=LINE('',#500,#501);
#414=VERTEX_POINT('',#502);
#415=LINE('',#503,#504);
#416=VERTEX_POINT('',#505);
#417=LINE('',#506,#507);
#418=VERTEX_POINT('',#508);
#419=LINE('',#509,#510);
#420=VERTEX_POINT('',#511);
#421=LINE('',#512,#513);
#422=VERTEX_POINT('',#514);
#423=LINE('',#515,#516);
#424=VERTEX_POINT('',#517);
#425=LINE('',#518,#519);
#426=VERTEX_POINT('',#520);
#427=LINE('',#521,#522);
#428=VERTEX_POINT('',#523);
#429=LINE('',#524,#525);
#430=VERTEX_POINT('',#526);
#431=LINE('',#527,#528);
#432=VERTEX_POINT('',#529);
#433=LINE('',#530,#531);
#434=LINE('',#532,#533);
#435=VERTEX_POINT('',#534);
#436=LINE('',#535,#536);
#437=LINE('',#537,#538);
#438=VERTEX_POINT('',#539);
#439=LINE('',#540,#541);
#440=LINE('',#542,#543);
#441=VERTEX_POINT('',#544);
#442=LINE('',#545,#546);
#443=LINE('',#547,#548);
#444=VERTEX_POINT('',#549);
#445=LINE('',#550,#551);
#446=LINE('',#552,#553);
#447=VERTEX_POINT('',#554);
#448=LINE('',#555,#556);
#449=LINE('',#557,#558);
#450=VERTEX_POINT('',#559);
#451=LINE('',#560,#561);
#452=LINE('',#562,#563);
#453=VERTEX_POINT('',#564);
#454=LINE('',#565,#566);
#455=LINE('',#567,#568);
#456=VERTEX_POINT('',#569);
#457=LINE('',#570,#571);
#458=LINE('',#572,#573);
#459=VERTEX_POINT('',#574);
#460=LINE('',#575,#576);
#461=LINE('',#577,#578);
#462=VERTEX_POINT('',#579);
#463=LINE('',#580,#581);
#464=LINE('',#582,#583);
#465=VERTEX_POINT('',#584);
#466=LINE('',#585,#586);
#467=LINE('',#587,#588);
#468=VERTEX_POINT('',#589);
#469=LINE('',#590,#591);
#470=LINE('',#592,#593);
#471=LINE('',#594,#595);
#472=CARTESIAN_POINT('',(-16.70710678118,15.207106781186,47.5));
#473=CARTESIAN_POINT('',(-16.70710678118,15.207106781186,-47.5));
#474=CARTESIAN_POINT('',(-16.70710678118,15.207106781186,0.0));
#475=VECTOR('',#596,1.0);
#476=CARTESIAN_POINT('',(-16.0,15.5,47.5));
#477=AXIS2_PLACEMENT_3D('',#597,#598,#599);
#478=CARTESIAN_POINT('',(-16.0,15.5,-47.5));
#479=CARTESIAN_POINT('',(-16.0,15.5,0.0));
#480=VECTOR('',#600,1.0);
#481=AXIS2_PLACEMENT_3D('',#601,#602,#603);
#482=CARTESIAN_POINT('',(-17.0,14.5,-47.5));
#483=AXIS2_PLACEMENT_3D('',#604,#605,#606);
#484=CARTESIAN_POINT('',(-17.0,14.5,47.5));
#485=CARTESIAN_POINT('',(-17.0,14.5,0.0));
#486=VECTOR('',#607,1.0);
#487=AXIS2_PLACEMENT_3D('',#608,#609,#610);
#488=CARTESIAN_POINT('',(-17.0,-11.5,-47.5));
#489=CARTESIAN_POINT('',(-17.0,15.5,-47.5));
#490=VECTOR('',#611,1.0);
#491=CARTESIAN_POINT('',(-17.0,-11.5,47.5));
#492=CARTESIAN_POINT('',(-17.0,-11.5,0.0));
#493=VECTOR('',#612,1.0);
#494=CARTESIAN_POINT('',(-17.0,15.5,47.5));
#495=VECTOR('',#613,1.0);
#496=CARTESIAN_POINT('',(10.0,15.5,-47.5));
#497=CARTESIAN_POINT('',(10.0,15.5,-47.5));
#498=VECTOR('',#614,1.0);
#499=CARTESIAN_POINT('',(10.0,14.0,-47.5));
#500=CARTESIAN_POINT('',(10.0,14.0,-47.5));
#501=VECTOR('',#615,1.0);
#502=CARTESIAN_POINT('',(0.0,14.0,-47.5));
#503=CARTESIAN_POINT('',(0.0,14.0,-47.5));
#504=VECTOR('',#616,1.0);
#505=CARTESIAN_POINT('',(0.0,-1.110223024625E-15,-47.5));
#506=CARTESIAN_POINT('',(0.0,-1.110223024625E-15,-47.5));
#507=VECTOR('',#617,1.0);
#508=CARTESIAN_POINT('',(10.0,0.0,-47.5));
#509=CARTESIAN_POINT('',(10.0,0.0,-47.5));
#510=VECTOR('',#618,1.0);
#511=CARTESIAN_POINT('',(10.0,-1.5,-47.5));
#512=CARTESIAN_POINT('',(10.0,-1.5,-47.5));
#513=VECTOR('',#619,1.0);
#514=CARTESIAN_POINT('',(0.0,-1.5,-47.5));
#515=CARTESIAN_POINT('',(0.0,-1.5,-47.5));
#516=VECTOR('',#620,1.0);
#517=CARTESIAN_POINT('',(0.0,-11.5,-47.5));
#518=CARTESIAN_POINT('',(0.0,-11.5,-47.5));
#519=VECTOR('',#621,1.0);
#520=CARTESIAN_POINT('',(-1.5,-11.5,-47.5));
#521=CARTESIAN_POINT('',(-1.5,-11.5,-47.5));
#522=VECTOR('',#622,1.0);
#523=CARTESIAN_POINT('',(-1.5,14.0,-47.5));
#524=CARTESIAN_POINT('',(-1.5,14.0,-47.5));
#525=VECTOR('',#623,1.0);
#526=CARTESIAN_POINT('',(-15.5,14.0,-47.5));
#527=CARTESIAN_POINT('',(-15.5,14.0,-47.5));
#528=VECTOR('',#624,1.0);
#529=CARTESIAN_POINT('',(-15.5,-11.5,-47.5));
#530=CARTESIAN_POINT('',(-15.5,-11.5,-47.5));
#531=VECTOR('',#625,1.0);
#532=CARTESIAN_POINT('',(-17.0,-11.5,-47.5));
#533=VECTOR('',#626,1.0);
#534=CARTESIAN_POINT('',(10.0,15.5,47.5));
#535=CARTESIAN_POINT('',(10.0,15.5,47.5));
#536=VECTOR('',#627,1.0);
#537=CARTESIAN_POINT('',(10.0,15.5,0.0));
#538=VECTOR('',#628,1.0);
#539=CARTESIAN_POINT('',(10.0,14.0,47.5));
#540=CARTESIAN_POINT('',(10.0,14.0,47.5));
#541=VECTOR('',#629,1.0);
#542=CARTESIAN_POINT('',(10.0,14.0,0.0));
#543=VECTOR('',#630,1.0);
#544=CARTESIAN_POINT('',(0.0,14.0,47.5));
#545=CARTESIAN_POINT('',(0.0,14.0,47.5));
#546=VECTOR('',#631,1.0);
#547=CARTESIAN_POINT('',(0.0,14.0,0.0));
#548=VECTOR('',#632,1.0);
#549=CARTESIAN_POINT('',(0.0,-1.110223024625E-15,47.5));
#550=CARTESIAN_POINT('',(0.0,-1.110223024625E-15,47.5));
#551=VECTOR('',#633,1.0);
#552=CARTESIAN_POINT('',(0.0,-1.110223024625E-15,0.0));
#553=VECTOR('',#634,1.0);
#554=CARTESIAN_POINT('',(10.0,0.0,47.5));
#555=CARTESIAN_POINT('',(10.0,0.0,47.5));
#556=VECTOR('',#635,1.0);
#557=CARTESIAN_POINT('',(10.0,0.0,0.0));
#558=VECTOR('',#636,1.0);
#559=CARTESIAN_POINT('',(10.0,-1.5,47.5));
#560=CARTESIAN_POINT('',(10.0,-1.5,47.5));
#561=VECTOR('',#637,1.0);
#562=CARTESIAN_POINT('',(10.0,-1.5,0.0));
#563=VECTOR('',#638,1.0);
#564=CARTESIAN_POINT('',(0.0,-1.5,47.5));
#565=CARTESIAN_POINT('',(0.0,-1.5,47.5));
#566=VECTOR('',#639,1.0);
#567=CARTESIAN_POINT('',(0.0,-1.5,0.0));
#568=VECTOR('',#640,1.0);
#569=CARTESIAN_POINT('',(0.0,-11.5,47.5));
#570=CARTESIAN_POINT('',(0.0,-11.5,47.5));
#571=VECTOR('',#641,1.0);
#572=CARTESIAN_POINT('',(0.0,-11.5,0.0));
#573=VECTOR('',#642,1.0);
#574=CARTESIAN_POINT('',(-1.5,-11.5,47.5));
#575=CARTESIAN_POINT('',(-1.5,-11.5,47.5));
#576=VECTOR('',#643,1.0);
#577=CARTESIAN_POINT('',(-1.5,-11.5,0.0));
#578=VECTOR('',#644,1.0);
#579=CARTESIAN_POINT('',(-1.5,14.0,47.5));
#580=CARTESIAN_POINT('',(-1.5,14.0,47.5));
#581=VECTOR('',#645,1.0);
#582=CARTESIAN_POINT('',(-1.5,14.0,0.0));
#583=VECTOR('',#646,1.0);
#584=CARTESIAN_POINT('',(-15.5,14.0,47.5));
#585=CARTESIAN_POINT('',(-15.5,14.0,47.5));
#586=VECTOR('',#647,1.0);
#587=CARTESIAN_POINT('',(-15.5,14.0,0.0));
#588=VECTOR('',#648,1.0);
#589=CARTESIAN_POINT('',(-15.5,-11.5,47.5));
#590=CARTESIAN_POINT('',(-15.5,-11.5,47.5));
#591=VECTOR('',#649,1.0);
#592=CARTESIAN_POINT('',(-15.5,-11.5,0.0));
#593=VECTOR('',#650,1.0);
#594=CARTESIAN_POINT('',(-17.0,-11.5,47.5));
#595=VECTOR('',#651,1.0);
#596=DIRECTION('',(-0.0,0.0,-1.0));
#597=CARTESIAN_POINT('',(-16.0,14.5,47.5));
#598=DIRECTION('',(0.0,0.0,-1.0));
#599=DIRECTION('',(-0.707106781186548,0.707106781186548,0.0));
#600=DIRECTION('',(0.0,0.0,-1.0));
#601=CARTESIAN_POINT('',(-16.0,14.5,-47.5));
#602=DIRECTION('',(0.0,0.0,1.0));
#603=DIRECTION('',(-0.707106781186548,0.707106781186548,0.0));
#604=CARTESIAN_POINT('',(-16.0,14.5,-47.5));
#605=DIRECTION('',(0.0,0.0,1.0));
#606=DIRECTION('',(-0.707106781186548,0.707106781186548,0.0));
#607=DIRECTION('',(0.0,0.0,1.0));
#608=CARTESIAN_POINT('',(-16.0,14.5,47.5));
#609=DIRECTION('',(0.0,0.0,-1.0));
#610=DIRECTION('',(-0.707106781186548,0.707106781186548,0.0));
#611=DIRECTION('',(1.644774851297E-16,-1.0,0.0));
#612=DIRECTION('',(0.0,0.0,1.0));
#613=DIRECTION('',(-1.644774851297E-16,1.0,0.0));
#614=DIRECTION('',(-1.0,-8.223874256483E-17,0.0));
#615=DIRECTION('',(0.0,1.0,0.0));
#616=DIRECTION('',(1.0,0.0,0.0));
#617=DIRECTION('',(0.0,1.0,0.0));
#618=DIRECTION('',(-1.0,-1.110223024625E-16,0.0));
#619=DIRECTION('',(0.0,1.0,0.0));
#620=DIRECTION('',(1.0,-8.326672684689E-17,0.0));
#621=DIRECTION('',(0.0,1.0,0.0));
#622=DIRECTION('',(1.0,0.0,0.0));
#623=DIRECTION('',(9.796085511398E-17,-1.0,0.0));
#624=DIRECTION('',(1.0,0.0,0.0));
#625=DIRECTION('',(0.0,1.0,0.0));
#626=DIRECTION('',(1.0,-1.480297366167E-15,0.0));
#627=DIRECTION('',(1.0,8.223874256483E-17,0.0));
#628=DIRECTION('',(0.0,0.0,1.0));
#629=DIRECTION('',(0.0,-1.0,0.0));
#630=DIRECTION('',(0.0,0.0,1.0));
#631=DIRECTION('',(-1.0,0.0,0.0));
#632=DIRECTION('',(0.0,0.0,1.0));
#633=DIRECTION('',(0.0,-1.0,0.0));
#634=DIRECTION('',(0.0,0.0,1.0));
#635=DIRECTION('',(1.0,1.110223024625E-16,0.0));
#636=DIRECTION('',(0.0,0.0,1.0));
#637=DIRECTION('',(0.0,-1.0,0.0));
#638=DIRECTION('',(0.0,0.0,1.0));
#639=DIRECTION('',(-1.0,8.326672684689E-17,0.0));
#640=DIRECTION('',(0.0,0.0,1.0));
#641=DIRECTION('',(0.0,-1.0,0.0));
#642=DIRECTION('',(0.0,0.0,1.0));
#643=DIRECTION('',(-1.0,0.0,0.0));
#644=DIRECTION('',(0.0,0.0,1.0));
#645=DIRECTION('',(-9.796085511398E-17,1.0,0.0));
#646=DIRECTION('',(0.0,0.0,1.0));
#647=DIRECTION('',(-1.0,0.0,0.0));
#648=DIRECTION('',(0.0,0.0,1.0));
#649=DIRECTION('',(0.0,-1.0,0.0));
#650=DIRECTION('',(0.0,0.0,1.0));
#651=DIRECTION('',(-1.0,1.480297366167E-15,0.0));
#652=PRESENTATION_LAYER_ASSIGNMENT('','',(#99,#100,#101,#102,#103,#104,#105,#106,#107,#108,#109,#110,#111,#112,#113,#114,#115,#116,#344,#345,#346,#347,#348,#349,#350,#351,#352,#353,#354,#355,#356,#357,#358,#359,#360,#361,#362,#363,#364,#365,#366,#367,#368,#369,#370,#371,#372,#373,#374,#375,#376,#377,#378,#379,#380,#381,#382,#383,#384,#385,#386,#387,#388,#389,#390,#391,#392,#393,#395,#397,#400,#402,#405,#407,#410,#412,#414,#416,#418,#420,#422,#424,#426,#428,#430,#432,#435,#438,#441,#444,#447,#450,#453,#456,#459,#462,#465,#468));
ENDSEC;
END-ISO-10303-21;
