ISO-10303-21;
HEADER;
FILE_DESCRIPTION(('STEP AP203'),'1');
FILE_NAME('V 4061033 SR-VBS 150 Rohrbogenverbinder.STP','2019-11-15T11:13:50',(' '),(' '),'Spatial InterOp 3D',' ',' ');
FILE_SCHEMA(('CONFIG_CONTROL_DESIGN'));
ENDSEC;
DATA;
#1=DESIGN_CONTEXT('',#27,'design');
#2=APPLICATION_PROTOCOL_DEFINITION('INTERNATIONAL STANDARD','config_control_design',1994,#27);
#3=PRODUCT_CATEGORY_RELATIONSHIP('NONE','NONE',#28,#29);
#4=DATE_AND_TIME(#30,#31);
#5=DATE_TIME_ROLE('creation_date');
#6=DATE_TIME_ROLE('classification_date');
#7=PERSON_AND_ORGANIZATION_ROLE('creator');
#8=PERSON_AND_ORGANIZATION_ROLE('design_supplier');
#9=PERSON_AND_ORGANIZATION_ROLE('classification_officer');
#10=PERSON_AND_ORGANIZATION_ROLE('design_owner');
#11=APPROVAL_PERSON_ORGANIZATION(#32,#33,#34);
#12=APPROVAL_DATE_TIME(#4,#33);
#13=CC_DESIGN_APPROVAL(#33,(#35,#36,#37));
#14=CC_DESIGN_DATE_AND_TIME_ASSIGNMENT(#4,#5,(#37));
#15=CC_DESIGN_DATE_AND_TIME_ASSIGNMENT(#4,#6,(#35));
#16=CC_DESIGN_PERSON_AND_ORGANIZATION_ASSIGNMENT(#32,#10,(#38));
#17=CC_DESIGN_PERSON_AND_ORGANIZATION_ASSIGNMENT(#32,#7,(#37));
#18=CC_DESIGN_PERSON_AND_ORGANIZATION_ASSIGNMENT(#32,#7,(#36));
#19=CC_DESIGN_PERSON_AND_ORGANIZATION_ASSIGNMENT(#32,#8,(#36));
#20=CC_DESIGN_SECURITY_CLASSIFICATION(#35,(#36));
#21=CC_DESIGN_PERSON_AND_ORGANIZATION_ASSIGNMENT(#32,#9,(#35));
#22=SHAPE_DEFINITION_REPRESENTATION(#39,#40);
#23= (GEOMETRIC_REPRESENTATION_CONTEXT(3)GLOBAL_UNCERTAINTY_ASSIGNED_CONTEXT((#43))GLOBAL_UNIT_ASSIGNED_CONTEXT((#45,#46,#47))REPRESENTATION_CONTEXT('NONE','WORKSPACE'));
#27=APPLICATION_CONTEXT('CONFIGURATION CONTROLLED 3D DESIGNS OF MECHANICAL PARTS AND ASSEMBLIES');
#28=PRODUCT_CATEGORY('part','NONE');
#29=PRODUCT_RELATED_PRODUCT_CATEGORY('detail',' ',(#38));
#30=CALENDAR_DATE(2019,15,10);
#31=LOCAL_TIME(12,13,50.0,#49);
#32=PERSON_AND_ORGANIZATION(#50,#51);
#33=APPROVAL(#52,'SOLID MODEL');
#34=APPROVAL_ROLE('APPROVED');
#35=SECURITY_CLASSIFICATION('','',#53);
#36=PRODUCT_DEFINITION_FORMATION_WITH_SPECIFIED_SOURCE(' ','NONE',#38,.NOT_KNOWN.);
#37=PRODUCT_DEFINITION('','NONE',#36,#1);
#38=PRODUCT('1','','PART--DESC',(#54));
#39=PRODUCT_DEFINITION_SHAPE('NONE','NONE',#37);
#40=ADVANCED_BREP_SHAPE_REPRESENTATION('1',(#55,#56),#23);
#43=UNCERTAINTY_MEASURE_WITH_UNIT(LENGTH_MEASURE(1.0E-06),#45,'','');
#45= (CONVERSION_BASED_UNIT('MILLIMETRE',#59)LENGTH_UNIT()NAMED_UNIT(#62));
#46= (NAMED_UNIT(#64)PLANE_ANGLE_UNIT()SI_UNIT($,.RADIAN.));
#47= (NAMED_UNIT(#64)SOLID_ANGLE_UNIT()SI_UNIT($,.STERADIAN.));
#49=COORDINATED_UNIVERSAL_TIME_OFFSET(1,0,.AHEAD.);
#50=PERSON('','UNSPECIFIED',$,$,$,$);
#51=ORGANIZATION('UNSPECIFIED','UNSPECIFIED','UNSPECIFIED');
#52=APPROVAL_STATUS('approved');
#53=SECURITY_CLASSIFICATION_LEVEL('unclassified');
#54=MECHANICAL_CONTEXT('',#27,'mechanical');
#55=MANIFOLD_SOLID_BREP('1',#70);
#56=AXIS2_PLACEMENT_3D('',#71,#72,#73);
#59=LENGTH_MEASURE_WITH_UNIT(LENGTH_MEASURE(1.0),#74);
#62=DIMENSIONAL_EXPONENTS(1.0,0.0,0.0,0.0,0.0,0.0,0.0);
#64=DIMENSIONAL_EXPONENTS(0.0,0.0,0.0,0.0,0.0,0.0,0.0);
#70=CLOSED_SHELL('',(#75,#76,#77,#78,#79,#80,#81));
#71=CARTESIAN_POINT('',(0.0,0.0,0.0));
#72=DIRECTION('',(0.0,0.0,1.0));
#73=DIRECTION('',(1.0,0.0,0.0));
#74= (NAMED_UNIT(#62)LENGTH_UNIT()SI_UNIT(.MILLI.,.METRE.));
#75=ADVANCED_FACE('',(#83,#84),#85,.T.);
#76=ADVANCED_FACE('',(#86),#87,.T.);
#77=ADVANCED_FACE('',(#88),#89,.T.);
#78=ADVANCED_FACE('',(#90),#91,.T.);
#79=ADVANCED_FACE('',(#92),#93,.T.);
#80=ADVANCED_FACE('',(#94,#95),#96,.F.);
#81=ADVANCED_FACE('',(#97,#98),#99,.F.);
#83=FACE_BOUND('',#100,.T.);
#84=FACE_OUTER_BOUND('',#101,.T.);
#85=PLANE('',#102);
#86=FACE_OUTER_BOUND('',#103,.T.);
#87=PLANE('',#104);
#88=FACE_OUTER_BOUND('',#105,.T.);
#89=PLANE('',#106);
#90=FACE_OUTER_BOUND('',#107,.T.);
#91=PLANE('',#108);
#92=FACE_OUTER_BOUND('',#109,.T.);
#93=CYLINDRICAL_SURFACE('',#110,74.6);
#94=FACE_BOUND('',#111,.T.);
#95=FACE_BOUND('',#112,.T.);
#96=CYLINDRICAL_SURFACE('',#113,74.0);
#97=FACE_BOUND('',#114,.T.);
#98=FACE_OUTER_BOUND('',#115,.T.);
#99=PLANE('',#116);
#100=EDGE_LOOP('',(#117));
#101=EDGE_LOOP('',(#118,#119,#120,#121));
#102=AXIS2_PLACEMENT_3D('',#122,#123,#124);
#103=EDGE_LOOP('',(#125,#126,#127,#128));
#104=AXIS2_PLACEMENT_3D('',#129,#130,#131);
#105=EDGE_LOOP('',(#132,#133,#134,#135));
#106=AXIS2_PLACEMENT_3D('',#136,#137,#138);
#107=EDGE_LOOP('',(#139,#140,#141,#142));
#108=AXIS2_PLACEMENT_3D('',#143,#144,#145);
#109=EDGE_LOOP('',(#146,#147,#148,#149));
#110=AXIS2_PLACEMENT_3D('',#150,#151,#152);
#111=EDGE_LOOP('',(#153));
#112=EDGE_LOOP('',(#154));
#113=AXIS2_PLACEMENT_3D('',#155,#156,#157);
#114=EDGE_LOOP('',(#158));
#115=EDGE_LOOP('',(#159,#160,#161,#162));
#116=AXIS2_PLACEMENT_3D('',#163,#164,#165);
#117=ORIENTED_EDGE('',*,*,#166,.F.);
#118=ORIENTED_EDGE('',*,*,#167,.F.);
#119=ORIENTED_EDGE('',*,*,#168,.F.);
#120=ORIENTED_EDGE('',*,*,#169,.F.);
#121=ORIENTED_EDGE('',*,*,#170,.F.);
#122=CARTESIAN_POINT('',(-6.97052766689418,-0.00340293100350664,0.0));
#123=DIRECTION('',(0.0,0.0,1.0));
#124=DIRECTION('',(-1.0,0.0,0.0));
#125=ORIENTED_EDGE('',*,*,#167,.T.);
#126=ORIENTED_EDGE('',*,*,#171,.T.);
#127=ORIENTED_EDGE('',*,*,#172,.T.);
#128=ORIENTED_EDGE('',*,*,#173,.F.);
#129=CARTESIAN_POINT('',(-75.9999999999998,-0.0552417881410747,420.0));
#130=DIRECTION('',(-1.0,0.0,0.0));
#131=DIRECTION('',(0.0,1.0,-0.0));
#132=ORIENTED_EDGE('',*,*,#170,.T.);
#133=ORIENTED_EDGE('',*,*,#174,.T.);
#134=ORIENTED_EDGE('',*,*,#175,.T.);
#135=ORIENTED_EDGE('',*,*,#171,.F.);
#136=CARTESIAN_POINT('',(-75.2818169377194,2.28240541131048,420.0));
#137=DIRECTION('',(-0.062939653212447,0.998017334545596,0.0));
#138=DIRECTION('',(0.998017334545596,0.062939653212447,0.0));
#139=ORIENTED_EDGE('',*,*,#168,.T.);
#140=ORIENTED_EDGE('',*,*,#173,.T.);
#141=ORIENTED_EDGE('',*,*,#176,.T.);
#142=ORIENTED_EDGE('',*,*,#177,.F.);
#143=CARTESIAN_POINT('',(-75.2805387637173,-2.37923082459261,420.0));
#144=DIRECTION('',(-0.0439263344884903,-0.999034772737368,0.0));
#145=DIRECTION('',(-0.999034772737368,0.0439263344884903,0.0));
#146=ORIENTED_EDGE('',*,*,#169,.T.);
#147=ORIENTED_EDGE('',*,*,#177,.T.);
#148=ORIENTED_EDGE('',*,*,#178,.T.);
#149=ORIENTED_EDGE('',*,*,#174,.F.);
#150=CARTESIAN_POINT('',(1.70530256582424E-13,-0.00135890571894492,420.0));
#151=DIRECTION('',(0.0,0.0,-1.0));
#152=DIRECTION('',(-1.0,0.0,0.0));
#153=ORIENTED_EDGE('',*,*,#166,.T.);
#154=ORIENTED_EDGE('',*,*,#179,.T.);
#155=CARTESIAN_POINT('',(1.70530256582424E-13,-0.00135890571894492,420.0));
#156=DIRECTION('',(0.0,0.0,-1.0));
#157=DIRECTION('',(-1.0,0.0,0.0));
#158=ORIENTED_EDGE('',*,*,#179,.F.);
#159=ORIENTED_EDGE('',*,*,#172,.F.);
#160=ORIENTED_EDGE('',*,*,#175,.F.);
#161=ORIENTED_EDGE('',*,*,#178,.F.);
#162=ORIENTED_EDGE('',*,*,#176,.F.);
#163=CARTESIAN_POINT('',(-6.97052766689418,-0.00340293100350664,-80.0));
#164=DIRECTION('',(0.0,0.0,1.0));
#165=DIRECTION('',(-1.0,0.0,0.0));
#166=EDGE_CURVE('',#180,#180,#181,.T.);
#167=EDGE_CURVE('',#182,#183,#184,.T.);
#168=EDGE_CURVE('',#185,#182,#186,.T.);
#169=EDGE_CURVE('',#187,#185,#188,.T.);
#170=EDGE_CURVE('',#183,#187,#189,.T.);
#171=EDGE_CURVE('',#183,#190,#191,.T.);
#172=EDGE_CURVE('',#190,#192,#193,.T.);
#173=EDGE_CURVE('',#182,#192,#194,.T.);
#174=EDGE_CURVE('',#187,#195,#196,.T.);
#175=EDGE_CURVE('',#195,#190,#197,.T.);
#176=EDGE_CURVE('',#192,#198,#199,.T.);
#177=EDGE_CURVE('',#185,#198,#200,.T.);
#178=EDGE_CURVE('',#198,#195,#201,.T.);
#179=EDGE_CURVE('',#202,#202,#203,.T.);
#180=VERTEX_POINT('',#204);
#181=CIRCLE('',#205,74.0);
#182=VERTEX_POINT('',#206);
#183=VERTEX_POINT('',#207);
#184=LINE('',#208,#209);
#185=VERTEX_POINT('',#210);
#186=LINE('',#211,#212);
#187=VERTEX_POINT('',#213);
#188=CIRCLE('',#214,74.6);
#189=LINE('',#215,#216);
#190=VERTEX_POINT('',#217);
#191=LINE('',#218,#219);
#192=VERTEX_POINT('',#220);
#193=LINE('',#221,#222);
#194=LINE('',#223,#224);
#195=VERTEX_POINT('',#225);
#196=LINE('',#226,#227);
#197=LINE('',#228,#229);
#198=VERTEX_POINT('',#230);
#199=LINE('',#231,#232);
#200=LINE('',#233,#234);
#201=CIRCLE('',#235,74.6);
#202=VERTEX_POINT('',#236);
#203=CIRCLE('',#237,74.0);
#204=CARTESIAN_POINT('',(-73.9999999999998,-0.00135890571894492,0.0));
#205=AXIS2_PLACEMENT_3D('',#238,#239,#240);
#206=CARTESIAN_POINT('',(-75.9999999999998,-2.34759699584222,0.0));
#207=CARTESIAN_POINT('',(-75.9999999999998,2.23711341956009,0.0));
#208=CARTESIAN_POINT('',(-75.9999999999998,-0.0293223595722907,0.0));
#209=VECTOR('',#241,1.0);
#210=CARTESIAN_POINT('',(-74.5610775274348,-2.41086465334298,0.0));
#211=CARTESIAN_POINT('',(-41.2435664184803,-3.87579478113611,0.0));
#212=VECTOR('',#242,0.999999999999999);
#213=CARTESIAN_POINT('',(-74.5636338754389,2.32769740306087,0.0));
#214=AXIS2_PLACEMENT_3D('',#243,#244,#245);
#215=CARTESIAN_POINT('',(-41.3332678422847,4.42336011537407,0.0));
#216=VECTOR('',#246,1.0);
#217=CARTESIAN_POINT('',(-75.9999999999998,2.23711341956009,-80.0));
#218=CARTESIAN_POINT('',(-75.9999999999998,2.23711341956009,420.0));
#219=VECTOR('',#247,1.0);
#220=CARTESIAN_POINT('',(-75.9999999999998,-2.34759699584222,-80.0));
#221=CARTESIAN_POINT('',(-75.9999999999998,2.23711341956009,-80.0));
#222=VECTOR('',#248,1.0);
#223=CARTESIAN_POINT('',(-75.9999999999998,-2.34759699584222,420.0));
#224=VECTOR('',#249,1.0);
#225=CARTESIAN_POINT('',(-74.5636338754389,2.32769740306087,-80.0));
#226=CARTESIAN_POINT('',(-74.5636338754389,2.32769740306087,420.0));
#227=VECTOR('',#250,1.0);
#228=CARTESIAN_POINT('',(-75.9999999999998,2.23711341956009,-80.0));
#229=VECTOR('',#251,1.0);
#230=CARTESIAN_POINT('',(-74.5610775274348,-2.41086465334298,-80.0));
#231=CARTESIAN_POINT('',(-75.9999999999998,-2.34759699584222,-80.0));
#232=VECTOR('',#252,0.999999999999999);
#233=CARTESIAN_POINT('',(-74.5610775274348,-2.41086465334298,420.0));
#234=VECTOR('',#253,1.0);
#235=AXIS2_PLACEMENT_3D('',#254,#255,#256);
#236=CARTESIAN_POINT('',(-73.9999999999998,-0.00135890571894492,-80.0));
#237=AXIS2_PLACEMENT_3D('',#257,#258,#259);
#238=CARTESIAN_POINT('',(1.70530256582424E-13,-0.00135890571894492,0.0));
#239=DIRECTION('',(0.0,0.0,1.0));
#240=DIRECTION('',(-1.0,0.0,0.0));
#241=DIRECTION('',(0.0,1.0,0.0));
#242=DIRECTION('',(-0.999034772737368,0.0439263344884903,0.0));
#243=CARTESIAN_POINT('',(1.70530256582424E-13,-0.00135890571894492,0.0));
#244=DIRECTION('',(0.0,0.0,-1.0));
#245=DIRECTION('',(-1.0,0.0,0.0));
#246=DIRECTION('',(0.998017334545596,0.062939653212447,0.0));
#247=DIRECTION('',(0.0,0.0,-1.0));
#248=DIRECTION('',(0.0,-1.0,0.0));
#249=DIRECTION('',(0.0,0.0,-1.0));
#250=DIRECTION('',(0.0,0.0,-1.0));
#251=DIRECTION('',(-0.998017334545596,-0.062939653212447,0.0));
#252=DIRECTION('',(0.999034772737368,-0.0439263344884903,0.0));
#253=DIRECTION('',(0.0,0.0,-1.0));
#254=CARTESIAN_POINT('',(1.70530256582424E-13,-0.00135890571894492,-80.0));
#255=DIRECTION('',(0.0,0.0,1.0));
#256=DIRECTION('',(-1.0,0.0,0.0));
#257=CARTESIAN_POINT('',(1.70530256582424E-13,-0.00135890571894492,-80.0));
#258=DIRECTION('',(0.0,0.0,-1.0));
#259=DIRECTION('',(-1.0,0.0,0.0));
ENDSEC;
END-ISO-10303-21;
