ISO-10303-21;
HEADER;
FILE_DESCRIPTION(('STEP AP203'),'1');
FILE_NAME('V 4061010 SR-R 1000 System 150.STP','2019-11-15T10:53:46',(' '),(' '),'Spatial InterOp 3D',' ',' ');
FILE_SCHEMA(('CONFIG_CONTROL_DESIGN'));
ENDSEC;
DATA;
#1=DESIGN_CONTEXT('',#27,'design');
#2=APPLICATION_PROTOCOL_DEFINITION('INTERNATIONAL STANDARD','config_control_design',1994,#27);
#3=PRODUCT_CATEGORY_RELATIONSHIP('NONE','NONE',#28,#29);
#4=DATE_AND_TIME(#30,#31);
#5=DATE_TIME_ROLE('creation_date');
#6=DATE_TIME_ROLE('classification_date');
#7=PERSON_AND_ORGANIZATION_ROLE('creator');
#8=PERSON_AND_ORGANIZATION_ROLE('design_supplier');
#9=PERSON_AND_ORGANIZATION_ROLE('classification_officer');
#10=PERSON_AND_ORGANIZATION_ROLE('design_owner');
#11=APPROVAL_PERSON_ORGANIZATION(#32,#33,#34);
#12=APPROVAL_DATE_TIME(#4,#33);
#13=CC_DESIGN_APPROVAL(#33,(#35,#36,#37));
#14=CC_DESIGN_DATE_AND_TIME_ASSIGNMENT(#4,#5,(#37));
#15=CC_DESIGN_DATE_AND_TIME_ASSIGNMENT(#4,#6,(#35));
#16=CC_DESIGN_PERSON_AND_ORGANIZATION_ASSIGNMENT(#32,#10,(#38));
#17=CC_DESIGN_PERSON_AND_ORGANIZATION_ASSIGNMENT(#32,#7,(#37));
#18=CC_DESIGN_PERSON_AND_ORGANIZATION_ASSIGNMENT(#32,#7,(#36));
#19=CC_DESIGN_PERSON_AND_ORGANIZATION_ASSIGNMENT(#32,#8,(#36));
#20=CC_DESIGN_SECURITY_CLASSIFICATION(#35,(#36));
#21=CC_DESIGN_PERSON_AND_ORGANIZATION_ASSIGNMENT(#32,#9,(#35));
#22=SHAPE_DEFINITION_REPRESENTATION(#39,#40);
#23= (GEOMETRIC_REPRESENTATION_CONTEXT(3)GLOBAL_UNCERTAINTY_ASSIGNED_CONTEXT((#43))GLOBAL_UNIT_ASSIGNED_CONTEXT((#45,#46,#47))REPRESENTATION_CONTEXT('NONE','WORKSPACE'));
#27=APPLICATION_CONTEXT('CONFIGURATION CONTROLLED 3D DESIGNS OF MECHANICAL PARTS AND ASSEMBLIES');
#28=PRODUCT_CATEGORY('part','NONE');
#29=PRODUCT_RELATED_PRODUCT_CATEGORY('detail',' ',(#38));
#30=CALENDAR_DATE(2019,15,10);
#31=LOCAL_TIME(11,53,46.0,#49);
#32=PERSON_AND_ORGANIZATION(#50,#51);
#33=APPROVAL(#52,'SOLID MODEL');
#34=APPROVAL_ROLE('APPROVED');
#35=SECURITY_CLASSIFICATION('','',#53);
#36=PRODUCT_DEFINITION_FORMATION_WITH_SPECIFIED_SOURCE(' ','NONE',#38,.NOT_KNOWN.);
#37=PRODUCT_DEFINITION('','NONE',#36,#1);
#38=PRODUCT('1','','PART--DESC',(#54));
#39=PRODUCT_DEFINITION_SHAPE('NONE','NONE',#37);
#40=ADVANCED_BREP_SHAPE_REPRESENTATION('1',(#55,#56),#23);
#43=UNCERTAINTY_MEASURE_WITH_UNIT(LENGTH_MEASURE(1.0E-06),#45,'','');
#45= (CONVERSION_BASED_UNIT('MILLIMETRE',#59)LENGTH_UNIT()NAMED_UNIT(#62));
#46= (NAMED_UNIT(#64)PLANE_ANGLE_UNIT()SI_UNIT($,.RADIAN.));
#47= (NAMED_UNIT(#64)SOLID_ANGLE_UNIT()SI_UNIT($,.STERADIAN.));
#49=COORDINATED_UNIVERSAL_TIME_OFFSET(1,0,.AHEAD.);
#50=PERSON('','UNSPECIFIED',$,$,$,$);
#51=ORGANIZATION('UNSPECIFIED','UNSPECIFIED','UNSPECIFIED');
#52=APPROVAL_STATUS('approved');
#53=SECURITY_CLASSIFICATION_LEVEL('unclassified');
#54=MECHANICAL_CONTEXT('',#27,'mechanical');
#55=MANIFOLD_SOLID_BREP('1',#70);
#56=AXIS2_PLACEMENT_3D('',#71,#72,#73);
#59=LENGTH_MEASURE_WITH_UNIT(LENGTH_MEASURE(1.0),#74);
#62=DIMENSIONAL_EXPONENTS(1.0,0.0,0.0,0.0,0.0,0.0,0.0);
#64=DIMENSIONAL_EXPONENTS(0.0,0.0,0.0,0.0,0.0,0.0,0.0);
#70=CLOSED_SHELL('',(#75,#76,#77,#78,#79,#80,#81));
#71=CARTESIAN_POINT('',(0.0,0.0,0.0));
#72=DIRECTION('',(0.0,0.0,1.0));
#73=DIRECTION('',(1.0,0.0,0.0));
#74= (NAMED_UNIT(#62)LENGTH_UNIT()SI_UNIT(.MILLI.,.METRE.));
#75=ADVANCED_FACE('',(#83),#84,.T.);
#76=ADVANCED_FACE('',(#85),#86,.T.);
#77=ADVANCED_FACE('',(#87),#88,.T.);
#78=ADVANCED_FACE('',(#89),#90,.T.);
#79=ADVANCED_FACE('',(#91,#92),#93,.F.);
#80=ADVANCED_FACE('',(#94,#95),#96,.F.);
#81=ADVANCED_FACE('',(#97,#98),#99,.T.);
#83=FACE_OUTER_BOUND('',#100,.T.);
#84=PLANE('',#101);
#85=FACE_OUTER_BOUND('',#102,.T.);
#86=PLANE('',#103);
#87=FACE_OUTER_BOUND('',#104,.T.);
#88=CYLINDRICAL_SURFACE('',#105,74.6);
#89=FACE_OUTER_BOUND('',#106,.T.);
#90=PLANE('',#107);
#91=FACE_BOUND('',#108,.T.);
#92=FACE_BOUND('',#109,.T.);
#93=CYLINDRICAL_SURFACE('',#110,74.0);
#94=FACE_BOUND('',#111,.T.);
#95=FACE_OUTER_BOUND('',#112,.T.);
#96=PLANE('',#113);
#97=FACE_BOUND('',#114,.T.);
#98=FACE_OUTER_BOUND('',#115,.T.);
#99=PLANE('',#116);
#100=EDGE_LOOP('',(#117,#118,#119,#120));
#101=AXIS2_PLACEMENT_3D('',#121,#122,#123);
#102=EDGE_LOOP('',(#124,#125,#126,#127));
#103=AXIS2_PLACEMENT_3D('',#128,#129,#130);
#104=EDGE_LOOP('',(#131,#132,#133,#134));
#105=AXIS2_PLACEMENT_3D('',#135,#136,#137);
#106=EDGE_LOOP('',(#138,#139,#140,#141));
#107=AXIS2_PLACEMENT_3D('',#142,#143,#144);
#108=EDGE_LOOP('',(#145));
#109=EDGE_LOOP('',(#146));
#110=AXIS2_PLACEMENT_3D('',#147,#148,#149);
#111=EDGE_LOOP('',(#150));
#112=EDGE_LOOP('',(#151,#152,#153,#154));
#113=AXIS2_PLACEMENT_3D('',#155,#156,#157);
#114=EDGE_LOOP('',(#158));
#115=EDGE_LOOP('',(#159,#160,#161,#162));
#116=AXIS2_PLACEMENT_3D('',#163,#164,#165);
#117=ORIENTED_EDGE('',*,*,#166,.T.);
#118=ORIENTED_EDGE('',*,*,#167,.F.);
#119=ORIENTED_EDGE('',*,*,#168,.F.);
#120=ORIENTED_EDGE('',*,*,#169,.T.);
#121=CARTESIAN_POINT('',(146.0,75.0538828824221,0.0));
#122=DIRECTION('',(1.0,-0.0,0.0));
#123=DIRECTION('',(-0.0,-1.0,-0.0));
#124=ORIENTED_EDGE('',*,*,#170,.T.);
#125=ORIENTED_EDGE('',*,*,#171,.F.);
#126=ORIENTED_EDGE('',*,*,#172,.F.);
#127=ORIENTED_EDGE('',*,*,#167,.T.);
#128=CARTESIAN_POINT('',(145.280538763717,77.3778719188737,0.0));
#129=DIRECTION('',(0.0439263344884903,0.999034772737368,0.0));
#130=DIRECTION('',(0.999034772737368,-0.0439263344884903,-0.0));
#131=ORIENTED_EDGE('',*,*,#173,.T.);
#132=ORIENTED_EDGE('',*,*,#174,.F.);
#133=ORIENTED_EDGE('',*,*,#175,.F.);
#134=ORIENTED_EDGE('',*,*,#171,.T.);
#135=CARTESIAN_POINT('',(70.0,75.0,0.0));
#136=DIRECTION('',(0.0,0.0,-1.0));
#137=DIRECTION('',(1.0,0.0,0.0));
#138=ORIENTED_EDGE('',*,*,#176,.T.);
#139=ORIENTED_EDGE('',*,*,#169,.F.);
#140=ORIENTED_EDGE('',*,*,#177,.T.);
#141=ORIENTED_EDGE('',*,*,#174,.T.);
#142=CARTESIAN_POINT('',(145.28181693772,72.7162356829706,0.0));
#143=DIRECTION('',(0.062939653212447,-0.998017334545596,0.0));
#144=DIRECTION('',(-0.998017334545596,-0.062939653212447,0.0));
#145=ORIENTED_EDGE('',*,*,#178,.T.);
#146=ORIENTED_EDGE('',*,*,#179,.T.);
#147=CARTESIAN_POINT('',(70.0,75.0,0.0));
#148=DIRECTION('',(0.0,0.0,-1.0));
#149=DIRECTION('',(1.0,0.0,0.0));
#150=ORIENTED_EDGE('',*,*,#178,.F.);
#151=ORIENTED_EDGE('',*,*,#166,.F.);
#152=ORIENTED_EDGE('',*,*,#176,.F.);
#153=ORIENTED_EDGE('',*,*,#173,.F.);
#154=ORIENTED_EDGE('',*,*,#170,.F.);
#155=CARTESIAN_POINT('',(76.9705276668944,75.0020440252846,-1000.0));
#156=DIRECTION('',(0.0,0.0,1.0));
#157=DIRECTION('',(1.0,0.0,0.0));
#158=ORIENTED_EDGE('',*,*,#179,.F.);
#159=ORIENTED_EDGE('',*,*,#177,.F.);
#160=ORIENTED_EDGE('',*,*,#168,.T.);
#161=ORIENTED_EDGE('',*,*,#172,.T.);
#162=ORIENTED_EDGE('',*,*,#175,.T.);
#163=CARTESIAN_POINT('',(76.9705276668944,75.0020440252846,0.0));
#164=DIRECTION('',(0.0,0.0,1.0));
#165=DIRECTION('',(1.0,0.0,0.0));
#166=EDGE_CURVE('',#180,#181,#182,.T.);
#167=EDGE_CURVE('',#183,#181,#184,.T.);
#168=EDGE_CURVE('',#185,#183,#186,.T.);
#169=EDGE_CURVE('',#185,#180,#187,.T.);
#170=EDGE_CURVE('',#181,#188,#189,.T.);
#171=EDGE_CURVE('',#190,#188,#191,.T.);
#172=EDGE_CURVE('',#183,#190,#192,.T.);
#173=EDGE_CURVE('',#188,#193,#194,.T.);
#174=EDGE_CURVE('',#195,#193,#196,.T.);
#175=EDGE_CURVE('',#190,#195,#197,.T.);
#176=EDGE_CURVE('',#193,#180,#198,.T.);
#177=EDGE_CURVE('',#185,#195,#199,.T.);
#178=EDGE_CURVE('',#200,#200,#201,.T.);
#179=EDGE_CURVE('',#202,#202,#203,.T.);
#180=VERTEX_POINT('',#204);
#181=VERTEX_POINT('',#205);
#182=LINE('',#206,#207);
#183=VERTEX_POINT('',#208);
#184=LINE('',#209,#210);
#185=VERTEX_POINT('',#211);
#186=LINE('',#212,#213);
#187=LINE('',#214,#215);
#188=VERTEX_POINT('',#216);
#189=LINE('',#217,#218);
#190=VERTEX_POINT('',#219);
#191=LINE('',#220,#221);
#192=LINE('',#222,#223);
#193=VERTEX_POINT('',#224);
#194=CIRCLE('',#225,74.6);
#195=VERTEX_POINT('',#226);
#196=LINE('',#227,#228);
#197=CIRCLE('',#229,74.6);
#198=LINE('',#230,#231);
#199=LINE('',#232,#233);
#200=VERTEX_POINT('',#234);
#201=CIRCLE('',#235,74.0);
#202=VERTEX_POINT('',#236);
#203=CIRCLE('',#237,74.0);
#204=CARTESIAN_POINT('',(146.0,72.761527674721,-1000.0));
#205=CARTESIAN_POINT('',(146.0,77.3462380901233,-1000.0));
#206=CARTESIAN_POINT('',(146.0,72.761527674721,-1000.0));
#207=VECTOR('',#238,1.0);
#208=CARTESIAN_POINT('',(146.0,77.3462380901233,0.0));
#209=CARTESIAN_POINT('',(146.0,77.3462380901233,0.0));
#210=VECTOR('',#239,1.0);
#211=CARTESIAN_POINT('',(146.0,72.761527674721,0.0));
#212=CARTESIAN_POINT('',(146.0,72.761527674721,0.0));
#213=VECTOR('',#240,1.0);
#214=CARTESIAN_POINT('',(146.0,72.761527674721,0.0));
#215=VECTOR('',#241,1.0);
#216=CARTESIAN_POINT('',(144.561077527435,77.409505747624,-1000.0));
#217=CARTESIAN_POINT('',(146.0,77.3462380901233,-1000.0));
#218=VECTOR('',#242,0.999999999999999);
#219=CARTESIAN_POINT('',(144.561077527435,77.409505747624,0.0));
#220=CARTESIAN_POINT('',(144.561077527435,77.409505747624,0.0));
#221=VECTOR('',#243,1.0);
#222=CARTESIAN_POINT('',(146.0,77.3462380901233,0.0));
#223=VECTOR('',#244,0.999999999999999);
#224=CARTESIAN_POINT('',(144.563633875439,72.6709436912202,-1000.0));
#225=AXIS2_PLACEMENT_3D('',#245,#246,#247);
#226=CARTESIAN_POINT('',(144.563633875439,72.6709436912202,0.0));
#227=CARTESIAN_POINT('',(144.563633875439,72.6709436912202,0.0));
#228=VECTOR('',#248,1.0);
#229=AXIS2_PLACEMENT_3D('',#249,#250,#251);
#230=CARTESIAN_POINT('',(146.0,72.761527674721,-1000.0));
#231=VECTOR('',#252,1.0);
#232=CARTESIAN_POINT('',(146.0,72.761527674721,0.0));
#233=VECTOR('',#253,1.0);
#234=CARTESIAN_POINT('',(144.0,75.0,-1000.0));
#235=AXIS2_PLACEMENT_3D('',#254,#255,#256);
#236=CARTESIAN_POINT('',(144.0,75.0,0.0));
#237=AXIS2_PLACEMENT_3D('',#257,#258,#259);
#238=DIRECTION('',(0.0,1.0,0.0));
#239=DIRECTION('',(0.0,0.0,-1.0));
#240=DIRECTION('',(0.0,1.0,0.0));
#241=DIRECTION('',(0.0,0.0,-1.0));
#242=DIRECTION('',(-0.999034772737368,0.0439263344884903,0.0));
#243=DIRECTION('',(0.0,0.0,-1.0));
#244=DIRECTION('',(-0.999034772737368,0.0439263344884903,0.0));
#245=CARTESIAN_POINT('',(70.0,75.0,-1000.0));
#246=DIRECTION('',(0.0,0.0,1.0));
#247=DIRECTION('',(1.0,0.0,0.0));
#248=DIRECTION('',(0.0,0.0,-1.0));
#249=CARTESIAN_POINT('',(70.0,75.0,0.0));
#250=DIRECTION('',(0.0,0.0,1.0));
#251=DIRECTION('',(1.0,0.0,0.0));
#252=DIRECTION('',(0.998017334545596,0.062939653212447,0.0));
#253=DIRECTION('',(-0.998017334545596,-0.062939653212447,0.0));
#254=CARTESIAN_POINT('',(70.0,75.0,-1000.0));
#255=DIRECTION('',(0.0,0.0,-1.0));
#256=DIRECTION('',(1.0,0.0,0.0));
#257=CARTESIAN_POINT('',(70.0,75.0,0.0));
#258=DIRECTION('',(0.0,0.0,1.0));
#259=DIRECTION('',(1.0,0.0,0.0));
ENDSEC;
END-ISO-10303-21;
