ISO-10303-21;
HEADER;
FILE_DESCRIPTION(('STEP AP203'),'1');
FILE_NAME('4043019_V Flachkanalhalterung 150.STP','2019-12-10T14:36:37',(' '),(' '),'Spatial InterOp 3D',' ',' ');
FILE_SCHEMA(('CONFIG_CONTROL_DESIGN'));
ENDSEC;
DATA;
#1=DESIGN_CONTEXT('',#27,'design');
#2=APPLICATION_PROTOCOL_DEFINITION('INTERNATIONAL STANDARD','config_control_design',1994,#27);
#3=PRODUCT_CATEGORY_RELATIONSHIP('NONE','NONE',#28,#29);
#4=DATE_AND_TIME(#30,#31);
#5=DATE_TIME_ROLE('creation_date');
#6=DATE_TIME_ROLE('classification_date');
#7=PERSON_AND_ORGANIZATION_ROLE('creator');
#8=PERSON_AND_ORGANIZATION_ROLE('design_supplier');
#9=PERSON_AND_ORGANIZATION_ROLE('classification_officer');
#10=PERSON_AND_ORGANIZATION_ROLE('design_owner');
#11=APPROVAL_PERSON_ORGANIZATION(#32,#33,#34);
#12=APPROVAL_DATE_TIME(#4,#33);
#13=CC_DESIGN_APPROVAL(#33,(#35,#36,#37));
#14=CC_DESIGN_DATE_AND_TIME_ASSIGNMENT(#4,#5,(#37));
#15=CC_DESIGN_DATE_AND_TIME_ASSIGNMENT(#4,#6,(#35));
#16=CC_DESIGN_PERSON_AND_ORGANIZATION_ASSIGNMENT(#32,#10,(#38));
#17=CC_DESIGN_PERSON_AND_ORGANIZATION_ASSIGNMENT(#32,#7,(#37));
#18=CC_DESIGN_PERSON_AND_ORGANIZATION_ASSIGNMENT(#32,#7,(#36));
#19=CC_DESIGN_PERSON_AND_ORGANIZATION_ASSIGNMENT(#32,#8,(#36));
#20=CC_DESIGN_SECURITY_CLASSIFICATION(#35,(#36));
#21=CC_DESIGN_PERSON_AND_ORGANIZATION_ASSIGNMENT(#32,#9,(#35));
#22=SHAPE_DEFINITION_REPRESENTATION(#39,#40);
#23= (GEOMETRIC_REPRESENTATION_CONTEXT(3)GLOBAL_UNCERTAINTY_ASSIGNED_CONTEXT((#43))GLOBAL_UNIT_ASSIGNED_CONTEXT((#45,#46,#47))REPRESENTATION_CONTEXT('NONE','WORKSPACE'));
#27=APPLICATION_CONTEXT('CONFIGURATION CONTROLLED 3D DESIGNS OF MECHANICAL PARTS AND ASSEMBLIES');
#28=PRODUCT_CATEGORY('part','NONE');
#29=PRODUCT_RELATED_PRODUCT_CATEGORY('detail',' ',(#38));
#30=CALENDAR_DATE(2019,10,11);
#31=LOCAL_TIME(15,36,37.0,#49);
#32=PERSON_AND_ORGANIZATION(#50,#51);
#33=APPROVAL(#52,'SOLID MODEL');
#34=APPROVAL_ROLE('APPROVED');
#35=SECURITY_CLASSIFICATION('','',#53);
#36=PRODUCT_DEFINITION_FORMATION_WITH_SPECIFIED_SOURCE(' ','NONE',#38,.NOT_KNOWN.);
#37=PRODUCT_DEFINITION('','NONE',#36,#1);
#38=PRODUCT('1','','PART--DESC',(#54));
#39=PRODUCT_DEFINITION_SHAPE('NONE','NONE',#37);
#40=ADVANCED_BREP_SHAPE_REPRESENTATION('1',(#55,#56),#23);
#43=UNCERTAINTY_MEASURE_WITH_UNIT(LENGTH_MEASURE(1.0E-06),#45,'','');
#45= (CONVERSION_BASED_UNIT('MILLIMETRE',#59)LENGTH_UNIT()NAMED_UNIT(#62));
#46= (NAMED_UNIT(#64)PLANE_ANGLE_UNIT()SI_UNIT($,.RADIAN.));
#47= (NAMED_UNIT(#64)SOLID_ANGLE_UNIT()SI_UNIT($,.STERADIAN.));
#49=COORDINATED_UNIVERSAL_TIME_OFFSET(1,0,.AHEAD.);
#50=PERSON('','UNSPECIFIED',$,$,$,$);
#51=ORGANIZATION('UNSPECIFIED','UNSPECIFIED','UNSPECIFIED');
#52=APPROVAL_STATUS('approved');
#53=SECURITY_CLASSIFICATION_LEVEL('unclassified');
#54=MECHANICAL_CONTEXT('',#27,'mechanical');
#55=MANIFOLD_SOLID_BREP('1',#70);
#56=AXIS2_PLACEMENT_3D('',#71,#72,#73);
#59=LENGTH_MEASURE_WITH_UNIT(LENGTH_MEASURE(1.0),#74);
#62=DIMENSIONAL_EXPONENTS(1.0,0.0,0.0,0.0,0.0,0.0,0.0);
#64=DIMENSIONAL_EXPONENTS(0.0,0.0,0.0,0.0,0.0,0.0,0.0);
#70=CLOSED_SHELL('',(#75,#76,#77,#78,#79,#80,#81,#82,#83,#84,#85,#86,#87,#88,#89,#90,#91,#92,#93,#94));
#71=CARTESIAN_POINT('',(0.0,0.0,0.0));
#72=DIRECTION('',(0.0,0.0,1.0));
#73=DIRECTION('',(1.0,0.0,0.0));
#74= (NAMED_UNIT(#62)LENGTH_UNIT()SI_UNIT(.MILLI.,.METRE.));
#75=ADVANCED_FACE('',(#96,#97),#98,.F.);
#76=ADVANCED_FACE('',(#99,#100),#101,.F.);
#77=ADVANCED_FACE('',(#102),#103,.T.);
#78=ADVANCED_FACE('',(#104),#105,.T.);
#79=ADVANCED_FACE('',(#106),#107,.T.);
#80=ADVANCED_FACE('',(#108),#109,.T.);
#81=ADVANCED_FACE('',(#110),#111,.T.);
#82=ADVANCED_FACE('',(#112,#113),#114,.T.);
#83=ADVANCED_FACE('',(#115),#116,.T.);
#84=ADVANCED_FACE('',(#117,#118),#119,.T.);
#85=ADVANCED_FACE('',(#120),#121,.T.);
#86=ADVANCED_FACE('',(#122),#123,.F.);
#87=ADVANCED_FACE('',(#124),#125,.T.);
#88=ADVANCED_FACE('',(#126),#127,.F.);
#89=ADVANCED_FACE('',(#128),#129,.T.);
#90=ADVANCED_FACE('',(#130,#131),#132,.T.);
#91=ADVANCED_FACE('',(#133),#134,.T.);
#92=ADVANCED_FACE('',(#135,#136),#137,.T.);
#93=ADVANCED_FACE('',(#138),#139,.F.);
#94=ADVANCED_FACE('',(#140),#141,.T.);
#96=FACE_BOUND('',#142,.T.);
#97=FACE_BOUND('',#143,.T.);
#98=CYLINDRICAL_SURFACE('',#144,2.5);
#99=FACE_BOUND('',#145,.T.);
#100=FACE_BOUND('',#146,.T.);
#101=CYLINDRICAL_SURFACE('',#147,2.5);
#102=FACE_OUTER_BOUND('',#148,.T.);
#103=PLANE('',#149);
#104=FACE_OUTER_BOUND('',#150,.T.);
#105=CYLINDRICAL_SURFACE('',#151,20.0);
#106=FACE_OUTER_BOUND('',#152,.T.);
#107=PLANE('',#153);
#108=FACE_OUTER_BOUND('',#154,.T.);
#109=CYLINDRICAL_SURFACE('',#155,20.0);
#110=FACE_OUTER_BOUND('',#156,.T.);
#111=PLANE('',#157);
#112=FACE_BOUND('',#158,.T.);
#113=FACE_OUTER_BOUND('',#159,.T.);
#114=PLANE('',#160);
#115=FACE_OUTER_BOUND('',#161,.T.);
#116=PLANE('',#162);
#117=FACE_BOUND('',#163,.T.);
#118=FACE_OUTER_BOUND('',#164,.T.);
#119=PLANE('',#165);
#120=FACE_OUTER_BOUND('',#166,.T.);
#121=PLANE('',#167);
#122=FACE_OUTER_BOUND('',#168,.T.);
#123=CYLINDRICAL_SURFACE('',#169,19.2);
#124=FACE_OUTER_BOUND('',#170,.T.);
#125=PLANE('',#171);
#126=FACE_OUTER_BOUND('',#172,.T.);
#127=CYLINDRICAL_SURFACE('',#173,19.2);
#128=FACE_OUTER_BOUND('',#174,.T.);
#129=PLANE('',#175);
#130=FACE_BOUND('',#176,.T.);
#131=FACE_OUTER_BOUND('',#177,.T.);
#132=PLANE('',#178);
#133=FACE_OUTER_BOUND('',#179,.T.);
#134=PLANE('',#180);
#135=FACE_BOUND('',#181,.T.);
#136=FACE_OUTER_BOUND('',#182,.T.);
#137=PLANE('',#183);
#138=FACE_OUTER_BOUND('',#184,.T.);
#139=PLANE('',#185);
#140=FACE_OUTER_BOUND('',#186,.T.);
#141=PLANE('',#187);
#142=EDGE_LOOP('',(#188));
#143=EDGE_LOOP('',(#189));
#144=AXIS2_PLACEMENT_3D('',#190,#191,#192);
#145=EDGE_LOOP('',(#193));
#146=EDGE_LOOP('',(#194));
#147=AXIS2_PLACEMENT_3D('',#195,#196,#197);
#148=EDGE_LOOP('',(#198,#199,#200,#201));
#149=AXIS2_PLACEMENT_3D('',#202,#203,#204);
#150=EDGE_LOOP('',(#205,#206,#207,#208));
#151=AXIS2_PLACEMENT_3D('',#209,#210,#211);
#152=EDGE_LOOP('',(#212,#213,#214,#215));
#153=AXIS2_PLACEMENT_3D('',#216,#217,#218);
#154=EDGE_LOOP('',(#219,#220,#221,#222));
#155=AXIS2_PLACEMENT_3D('',#223,#224,#225);
#156=EDGE_LOOP('',(#226,#227,#228,#229));
#157=AXIS2_PLACEMENT_3D('',#230,#231,#232);
#158=EDGE_LOOP('',(#233));
#159=EDGE_LOOP('',(#234,#235,#236,#237));
#160=AXIS2_PLACEMENT_3D('',#238,#239,#240);
#161=EDGE_LOOP('',(#241,#242,#243,#244));
#162=AXIS2_PLACEMENT_3D('',#245,#246,#247);
#163=EDGE_LOOP('',(#248));
#164=EDGE_LOOP('',(#249,#250,#251,#252));
#165=AXIS2_PLACEMENT_3D('',#253,#254,#255);
#166=EDGE_LOOP('',(#256,#257,#258,#259));
#167=AXIS2_PLACEMENT_3D('',#260,#261,#262);
#168=EDGE_LOOP('',(#263,#264,#265,#266));
#169=AXIS2_PLACEMENT_3D('',#267,#268,#269);
#170=EDGE_LOOP('',(#270,#271,#272,#273));
#171=AXIS2_PLACEMENT_3D('',#274,#275,#276);
#172=EDGE_LOOP('',(#277,#278,#279,#280));
#173=AXIS2_PLACEMENT_3D('',#281,#282,#283);
#174=EDGE_LOOP('',(#284,#285,#286,#287));
#175=AXIS2_PLACEMENT_3D('',#288,#289,#290);
#176=EDGE_LOOP('',(#291));
#177=EDGE_LOOP('',(#292,#293,#294,#295));
#178=AXIS2_PLACEMENT_3D('',#296,#297,#298);
#179=EDGE_LOOP('',(#299,#300,#301,#302));
#180=AXIS2_PLACEMENT_3D('',#303,#304,#305);
#181=EDGE_LOOP('',(#306));
#182=EDGE_LOOP('',(#307,#308,#309,#310));
#183=AXIS2_PLACEMENT_3D('',#311,#312,#313);
#184=EDGE_LOOP('',(#314,#315,#316,#317,#318,#319,#320,#321,#322,#323,#324,#325,#326,#327,#328,#329));
#185=AXIS2_PLACEMENT_3D('',#330,#331,#332);
#186=EDGE_LOOP('',(#333,#334,#335,#336,#337,#338,#339,#340,#341,#342,#343,#344,#345,#346,#347,#348));
#187=AXIS2_PLACEMENT_3D('',#349,#350,#351);
#188=ORIENTED_EDGE('',*,*,#352,.T.);
#189=ORIENTED_EDGE('',*,*,#353,.T.);
#190=CARTESIAN_POINT('',(95.0,189.0,-10.0));
#191=DIRECTION('',(0.0,-1.0,0.0));
#192=DIRECTION('',(-1.0,0.0,0.0));
#193=ORIENTED_EDGE('',*,*,#354,.T.);
#194=ORIENTED_EDGE('',*,*,#355,.T.);
#195=CARTESIAN_POINT('',(338.6,189.0,-10.0));
#196=DIRECTION('',(0.0,-1.0,0.0));
#197=DIRECTION('',(-1.0,0.0,0.0));
#198=ORIENTED_EDGE('',*,*,#356,.T.);
#199=ORIENTED_EDGE('',*,*,#357,.F.);
#200=ORIENTED_EDGE('',*,*,#358,.F.);
#201=ORIENTED_EDGE('',*,*,#359,.T.);
#202=CARTESIAN_POINT('',(105.0,151.6,0.0));
#203=DIRECTION('',(-1.0,0.0,0.0));
#204=DIRECTION('',(0.0,1.0,0.0));
#205=ORIENTED_EDGE('',*,*,#360,.T.);
#206=ORIENTED_EDGE('',*,*,#361,.F.);
#207=ORIENTED_EDGE('',*,*,#362,.F.);
#208=ORIENTED_EDGE('',*,*,#357,.T.);
#209=CARTESIAN_POINT('',(125.0,115.0,0.0));
#210=DIRECTION('',(0.0,0.0,-1.0));
#211=DIRECTION('',(1.0,0.0,0.0));
#212=ORIENTED_EDGE('',*,*,#363,.T.);
#213=ORIENTED_EDGE('',*,*,#364,.F.);
#214=ORIENTED_EDGE('',*,*,#365,.F.);
#215=ORIENTED_EDGE('',*,*,#361,.T.);
#216=CARTESIAN_POINT('',(216.8,95.0,0.0));
#217=DIRECTION('',(0.0,-1.0,-0.0));
#218=DIRECTION('',(-1.0,0.0,-0.0));
#219=ORIENTED_EDGE('',*,*,#366,.T.);
#220=ORIENTED_EDGE('',*,*,#367,.F.);
#221=ORIENTED_EDGE('',*,*,#368,.F.);
#222=ORIENTED_EDGE('',*,*,#364,.T.);
#223=CARTESIAN_POINT('',(308.6,115.0,0.0));
#224=DIRECTION('',(0.0,0.0,-1.0));
#225=DIRECTION('',(1.0,0.0,0.0));
#226=ORIENTED_EDGE('',*,*,#369,.T.);
#227=ORIENTED_EDGE('',*,*,#370,.F.);
#228=ORIENTED_EDGE('',*,*,#371,.F.);
#229=ORIENTED_EDGE('',*,*,#367,.T.);
#230=CARTESIAN_POINT('',(328.6,151.6,0.0));
#231=DIRECTION('',(1.0,-0.0,0.0));
#232=DIRECTION('',(-0.0,-1.0,-0.0));
#233=ORIENTED_EDGE('',*,*,#354,.F.);
#234=ORIENTED_EDGE('',*,*,#372,.T.);
#235=ORIENTED_EDGE('',*,*,#373,.F.);
#236=ORIENTED_EDGE('',*,*,#374,.T.);
#237=ORIENTED_EDGE('',*,*,#370,.T.);
#238=CARTESIAN_POINT('',(338.6,188.2,0.0));
#239=DIRECTION('',(-0.0,-1.0,-0.0));
#240=DIRECTION('',(-1.0,0.0,0.0));
#241=ORIENTED_EDGE('',*,*,#375,.T.);
#242=ORIENTED_EDGE('',*,*,#376,.F.);
#243=ORIENTED_EDGE('',*,*,#377,.F.);
#244=ORIENTED_EDGE('',*,*,#373,.T.);
#245=CARTESIAN_POINT('',(348.6,188.6,0.0));
#246=DIRECTION('',(1.0,-0.0,0.0));
#247=DIRECTION('',(-0.0,-1.0,-0.0));
#248=ORIENTED_EDGE('',*,*,#355,.F.);
#249=ORIENTED_EDGE('',*,*,#378,.T.);
#250=ORIENTED_EDGE('',*,*,#379,.F.);
#251=ORIENTED_EDGE('',*,*,#380,.F.);
#252=ORIENTED_EDGE('',*,*,#376,.T.);
#253=CARTESIAN_POINT('',(338.2,189.0,0.0));
#254=DIRECTION('',(0.0,1.0,0.0));
#255=DIRECTION('',(1.0,-0.0,-0.0));
#256=ORIENTED_EDGE('',*,*,#381,.T.);
#257=ORIENTED_EDGE('',*,*,#382,.F.);
#258=ORIENTED_EDGE('',*,*,#383,.T.);
#259=ORIENTED_EDGE('',*,*,#379,.T.);
#260=CARTESIAN_POINT('',(327.8,152.0,0.0));
#261=DIRECTION('',(-1.0,0.0,0.0));
#262=DIRECTION('',(0.0,1.0,0.0));
#263=ORIENTED_EDGE('',*,*,#384,.T.);
#264=ORIENTED_EDGE('',*,*,#385,.F.);
#265=ORIENTED_EDGE('',*,*,#386,.T.);
#266=ORIENTED_EDGE('',*,*,#382,.T.);
#267=CARTESIAN_POINT('',(308.6,115.0,0.0));
#268=DIRECTION('',(0.0,0.0,-1.0));
#269=DIRECTION('',(1.0,0.0,0.0));
#270=ORIENTED_EDGE('',*,*,#387,.T.);
#271=ORIENTED_EDGE('',*,*,#388,.F.);
#272=ORIENTED_EDGE('',*,*,#389,.T.);
#273=ORIENTED_EDGE('',*,*,#385,.T.);
#274=CARTESIAN_POINT('',(216.8,95.8,0.0));
#275=DIRECTION('',(-0.0,1.0,0.0));
#276=DIRECTION('',(1.0,0.0,0.0));
#277=ORIENTED_EDGE('',*,*,#390,.T.);
#278=ORIENTED_EDGE('',*,*,#391,.F.);
#279=ORIENTED_EDGE('',*,*,#392,.T.);
#280=ORIENTED_EDGE('',*,*,#388,.T.);
#281=CARTESIAN_POINT('',(125.0,115.0,0.0));
#282=DIRECTION('',(0.0,0.0,-1.0));
#283=DIRECTION('',(1.0,0.0,0.0));
#284=ORIENTED_EDGE('',*,*,#393,.T.);
#285=ORIENTED_EDGE('',*,*,#394,.F.);
#286=ORIENTED_EDGE('',*,*,#395,.T.);
#287=ORIENTED_EDGE('',*,*,#391,.T.);
#288=CARTESIAN_POINT('',(105.8,152.0,0.0));
#289=DIRECTION('',(1.0,0.0,0.0));
#290=DIRECTION('',(0.0,-1.0,0.0));
#291=ORIENTED_EDGE('',*,*,#353,.F.);
#292=ORIENTED_EDGE('',*,*,#396,.T.);
#293=ORIENTED_EDGE('',*,*,#397,.F.);
#294=ORIENTED_EDGE('',*,*,#398,.F.);
#295=ORIENTED_EDGE('',*,*,#394,.T.);
#296=CARTESIAN_POINT('',(95.4,189.0,0.0));
#297=DIRECTION('',(0.0,1.0,0.0));
#298=DIRECTION('',(1.0,-0.0,-0.0));
#299=ORIENTED_EDGE('',*,*,#399,.T.);
#300=ORIENTED_EDGE('',*,*,#400,.F.);
#301=ORIENTED_EDGE('',*,*,#401,.F.);
#302=ORIENTED_EDGE('',*,*,#397,.T.);
#303=CARTESIAN_POINT('',(85.0,188.6,0.0));
#304=DIRECTION('',(-1.0,0.0,0.0));
#305=DIRECTION('',(0.0,1.0,0.0));
#306=ORIENTED_EDGE('',*,*,#352,.F.);
#307=ORIENTED_EDGE('',*,*,#402,.T.);
#308=ORIENTED_EDGE('',*,*,#359,.F.);
#309=ORIENTED_EDGE('',*,*,#403,.T.);
#310=ORIENTED_EDGE('',*,*,#400,.T.);
#311=CARTESIAN_POINT('',(95.0,188.2,0.0));
#312=DIRECTION('',(-0.0,-1.0,-0.0));
#313=DIRECTION('',(-1.0,0.0,0.0));
#314=ORIENTED_EDGE('',*,*,#356,.F.);
#315=ORIENTED_EDGE('',*,*,#402,.F.);
#316=ORIENTED_EDGE('',*,*,#399,.F.);
#317=ORIENTED_EDGE('',*,*,#396,.F.);
#318=ORIENTED_EDGE('',*,*,#393,.F.);
#319=ORIENTED_EDGE('',*,*,#390,.F.);
#320=ORIENTED_EDGE('',*,*,#387,.F.);
#321=ORIENTED_EDGE('',*,*,#384,.F.);
#322=ORIENTED_EDGE('',*,*,#381,.F.);
#323=ORIENTED_EDGE('',*,*,#378,.F.);
#324=ORIENTED_EDGE('',*,*,#375,.F.);
#325=ORIENTED_EDGE('',*,*,#372,.F.);
#326=ORIENTED_EDGE('',*,*,#369,.F.);
#327=ORIENTED_EDGE('',*,*,#366,.F.);
#328=ORIENTED_EDGE('',*,*,#363,.F.);
#329=ORIENTED_EDGE('',*,*,#360,.F.);
#330=CARTESIAN_POINT('',(216.8,124.513061598909,-20.0));
#331=DIRECTION('',(0.0,0.0,1.0));
#332=DIRECTION('',(1.0,0.0,0.0));
#333=ORIENTED_EDGE('',*,*,#403,.F.);
#334=ORIENTED_EDGE('',*,*,#358,.T.);
#335=ORIENTED_EDGE('',*,*,#362,.T.);
#336=ORIENTED_EDGE('',*,*,#365,.T.);
#337=ORIENTED_EDGE('',*,*,#368,.T.);
#338=ORIENTED_EDGE('',*,*,#371,.T.);
#339=ORIENTED_EDGE('',*,*,#374,.F.);
#340=ORIENTED_EDGE('',*,*,#377,.T.);
#341=ORIENTED_EDGE('',*,*,#380,.T.);
#342=ORIENTED_EDGE('',*,*,#383,.F.);
#343=ORIENTED_EDGE('',*,*,#386,.F.);
#344=ORIENTED_EDGE('',*,*,#389,.F.);
#345=ORIENTED_EDGE('',*,*,#392,.F.);
#346=ORIENTED_EDGE('',*,*,#395,.F.);
#347=ORIENTED_EDGE('',*,*,#398,.T.);
#348=ORIENTED_EDGE('',*,*,#401,.T.);
#349=CARTESIAN_POINT('',(216.8,124.513061598909,0.0));
#350=DIRECTION('',(0.0,0.0,1.0));
#351=DIRECTION('',(1.0,0.0,0.0));
#352=EDGE_CURVE('',#404,#404,#405,.T.);
#353=EDGE_CURVE('',#406,#406,#407,.T.);
#354=EDGE_CURVE('',#408,#408,#409,.T.);
#355=EDGE_CURVE('',#410,#410,#411,.T.);
#356=EDGE_CURVE('',#412,#413,#414,.T.);
#357=EDGE_CURVE('',#415,#413,#416,.T.);
#358=EDGE_CURVE('',#417,#415,#418,.T.);
#359=EDGE_CURVE('',#417,#412,#419,.T.);
#360=EDGE_CURVE('',#413,#420,#421,.T.);
#361=EDGE_CURVE('',#422,#420,#423,.T.);
#362=EDGE_CURVE('',#415,#422,#424,.T.);
#363=EDGE_CURVE('',#420,#425,#426,.T.);
#364=EDGE_CURVE('',#427,#425,#428,.T.);
#365=EDGE_CURVE('',#422,#427,#429,.T.);
#366=EDGE_CURVE('',#425,#430,#431,.T.);
#367=EDGE_CURVE('',#432,#430,#433,.T.);
#368=EDGE_CURVE('',#427,#432,#434,.T.);
#369=EDGE_CURVE('',#430,#435,#436,.T.);
#370=EDGE_CURVE('',#437,#435,#438,.T.);
#371=EDGE_CURVE('',#432,#437,#439,.T.);
#372=EDGE_CURVE('',#435,#440,#441,.T.);
#373=EDGE_CURVE('',#442,#440,#443,.T.);
#374=EDGE_CURVE('',#442,#437,#444,.T.);
#375=EDGE_CURVE('',#440,#445,#446,.T.);
#376=EDGE_CURVE('',#447,#445,#448,.T.);
#377=EDGE_CURVE('',#442,#447,#449,.T.);
#378=EDGE_CURVE('',#445,#450,#451,.T.);
#379=EDGE_CURVE('',#452,#450,#453,.T.);
#380=EDGE_CURVE('',#447,#452,#454,.T.);
#381=EDGE_CURVE('',#450,#455,#456,.T.);
#382=EDGE_CURVE('',#457,#455,#458,.T.);
#383=EDGE_CURVE('',#457,#452,#459,.T.);
#384=EDGE_CURVE('',#455,#460,#461,.T.);
#385=EDGE_CURVE('',#462,#460,#463,.T.);
#386=EDGE_CURVE('',#462,#457,#464,.T.);
#387=EDGE_CURVE('',#460,#465,#466,.T.);
#388=EDGE_CURVE('',#467,#465,#468,.T.);
#389=EDGE_CURVE('',#467,#462,#469,.T.);
#390=EDGE_CURVE('',#465,#470,#471,.T.);
#391=EDGE_CURVE('',#472,#470,#473,.T.);
#392=EDGE_CURVE('',#472,#467,#474,.T.);
#393=EDGE_CURVE('',#470,#475,#476,.T.);
#394=EDGE_CURVE('',#477,#475,#478,.T.);
#395=EDGE_CURVE('',#477,#472,#479,.T.);
#396=EDGE_CURVE('',#475,#480,#481,.T.);
#397=EDGE_CURVE('',#482,#480,#483,.T.);
#398=EDGE_CURVE('',#477,#482,#484,.T.);
#399=EDGE_CURVE('',#480,#485,#486,.T.);
#400=EDGE_CURVE('',#487,#485,#488,.T.);
#401=EDGE_CURVE('',#482,#487,#489,.T.);
#402=EDGE_CURVE('',#485,#412,#490,.T.);
#403=EDGE_CURVE('',#417,#487,#491,.T.);
#404=VERTEX_POINT('',#492);
#405=CIRCLE('',#493,2.5);
#406=VERTEX_POINT('',#494);
#407=CIRCLE('',#495,2.5);
#408=VERTEX_POINT('',#496);
#409=CIRCLE('',#497,2.5);
#410=VERTEX_POINT('',#498);
#411=CIRCLE('',#499,2.5);
#412=VERTEX_POINT('',#500);
#413=VERTEX_POINT('',#501);
#414=LINE('',#502,#503);
#415=VERTEX_POINT('',#504);
#416=LINE('',#505,#506);
#417=VERTEX_POINT('',#507);
#418=LINE('',#508,#509);
#419=LINE('',#510,#511);
#420=VERTEX_POINT('',#512);
#421=CIRCLE('',#513,20.0);
#422=VERTEX_POINT('',#514);
#423=LINE('',#515,#516);
#424=CIRCLE('',#517,20.0);
#425=VERTEX_POINT('',#518);
#426=LINE('',#519,#520);
#427=VERTEX_POINT('',#521);
#428=LINE('',#522,#523);
#429=LINE('',#524,#525);
#430=VERTEX_POINT('',#526);
#431=CIRCLE('',#527,20.0);
#432=VERTEX_POINT('',#528);
#433=LINE('',#529,#530);
#434=CIRCLE('',#531,20.0);
#435=VERTEX_POINT('',#532);
#436=LINE('',#533,#534);
#437=VERTEX_POINT('',#535);
#438=LINE('',#536,#537);
#439=LINE('',#538,#539);
#440=VERTEX_POINT('',#540);
#441=LINE('',#541,#542);
#442=VERTEX_POINT('',#543);
#443=LINE('',#544,#545);
#444=LINE('',#546,#547);
#445=VERTEX_POINT('',#548);
#446=LINE('',#549,#550);
#447=VERTEX_POINT('',#551);
#448=LINE('',#552,#553);
#449=LINE('',#554,#555);
#450=VERTEX_POINT('',#556);
#451=LINE('',#557,#558);
#452=VERTEX_POINT('',#559);
#453=LINE('',#560,#561);
#454=LINE('',#562,#563);
#455=VERTEX_POINT('',#564);
#456=LINE('',#565,#566);
#457=VERTEX_POINT('',#567);
#458=LINE('',#568,#569);
#459=LINE('',#570,#571);
#460=VERTEX_POINT('',#572);
#461=CIRCLE('',#573,19.2);
#462=VERTEX_POINT('',#574);
#463=LINE('',#575,#576);
#464=CIRCLE('',#577,19.2);
#465=VERTEX_POINT('',#578);
#466=LINE('',#579,#580);
#467=VERTEX_POINT('',#581);
#468=LINE('',#582,#583);
#469=LINE('',#584,#585);
#470=VERTEX_POINT('',#586);
#471=CIRCLE('',#587,19.2);
#472=VERTEX_POINT('',#588);
#473=LINE('',#589,#590);
#474=CIRCLE('',#591,19.2);
#475=VERTEX_POINT('',#592);
#476=LINE('',#593,#594);
#477=VERTEX_POINT('',#595);
#478=LINE('',#596,#597);
#479=LINE('',#598,#599);
#480=VERTEX_POINT('',#600);
#481=LINE('',#601,#602);
#482=VERTEX_POINT('',#603);
#483=LINE('',#604,#605);
#484=LINE('',#606,#607);
#485=VERTEX_POINT('',#608);
#486=LINE('',#609,#610);
#487=VERTEX_POINT('',#611);
#488=LINE('',#612,#613);
#489=LINE('',#614,#615);
#490=LINE('',#616,#617);
#491=LINE('',#618,#619);
#492=CARTESIAN_POINT('',(92.5,188.2,-10.0));
#493=AXIS2_PLACEMENT_3D('',#620,#621,#622);
#494=CARTESIAN_POINT('',(92.5,189.0,-10.0));
#495=AXIS2_PLACEMENT_3D('',#623,#624,#625);
#496=CARTESIAN_POINT('',(336.1,188.2,-10.0));
#497=AXIS2_PLACEMENT_3D('',#626,#627,#628);
#498=CARTESIAN_POINT('',(336.1,189.0,-10.0));
#499=AXIS2_PLACEMENT_3D('',#629,#630,#631);
#500=CARTESIAN_POINT('',(105.0,188.2,-20.0));
#501=CARTESIAN_POINT('',(105.0,115.0,-20.0));
#502=CARTESIAN_POINT('',(105.0,188.2,-20.0));
#503=VECTOR('',#632,1.0);
#504=CARTESIAN_POINT('',(105.0,115.0,0.0));
#505=CARTESIAN_POINT('',(105.0,115.0,0.0));
#506=VECTOR('',#633,1.0);
#507=CARTESIAN_POINT('',(105.0,188.2,0.0));
#508=CARTESIAN_POINT('',(105.0,188.2,0.0));
#509=VECTOR('',#634,1.0);
#510=CARTESIAN_POINT('',(105.0,188.2,0.0));
#511=VECTOR('',#635,1.0);
#512=CARTESIAN_POINT('',(125.0,95.0,-20.0));
#513=AXIS2_PLACEMENT_3D('',#636,#637,#638);
#514=CARTESIAN_POINT('',(125.0,95.0,0.0));
#515=CARTESIAN_POINT('',(125.0,95.0,0.0));
#516=VECTOR('',#639,1.0);
#517=AXIS2_PLACEMENT_3D('',#640,#641,#642);
#518=CARTESIAN_POINT('',(308.6,95.0,-20.0));
#519=CARTESIAN_POINT('',(125.0,95.0,-20.0));
#520=VECTOR('',#643,1.0);
#521=CARTESIAN_POINT('',(308.6,95.0,0.0));
#522=CARTESIAN_POINT('',(308.6,95.0,0.0));
#523=VECTOR('',#644,1.0);
#524=CARTESIAN_POINT('',(125.0,95.0,0.0));
#525=VECTOR('',#645,1.0);
#526=CARTESIAN_POINT('',(328.6,115.0,-20.0));
#527=AXIS2_PLACEMENT_3D('',#646,#647,#648);
#528=CARTESIAN_POINT('',(328.6,115.0,0.0));
#529=CARTESIAN_POINT('',(328.6,115.0,0.0));
#530=VECTOR('',#649,1.0);
#531=AXIS2_PLACEMENT_3D('',#650,#651,#652);
#532=CARTESIAN_POINT('',(328.6,188.2,-20.0));
#533=CARTESIAN_POINT('',(328.6,115.0,-20.0));
#534=VECTOR('',#653,1.0);
#535=CARTESIAN_POINT('',(328.6,188.2,0.0));
#536=CARTESIAN_POINT('',(328.6,188.2,0.0));
#537=VECTOR('',#654,1.0);
#538=CARTESIAN_POINT('',(328.6,115.0,0.0));
#539=VECTOR('',#655,1.0);
#540=CARTESIAN_POINT('',(348.6,188.2,-20.0));
#541=CARTESIAN_POINT('',(348.6,188.2,-20.0));
#542=VECTOR('',#656,1.0);
#543=CARTESIAN_POINT('',(348.6,188.2,0.0));
#544=CARTESIAN_POINT('',(348.6,188.2,0.0));
#545=VECTOR('',#657,1.0);
#546=CARTESIAN_POINT('',(348.6,188.2,0.0));
#547=VECTOR('',#658,1.0);
#548=CARTESIAN_POINT('',(348.6,189.0,-20.0));
#549=CARTESIAN_POINT('',(348.6,188.2,-20.0));
#550=VECTOR('',#659,1.0);
#551=CARTESIAN_POINT('',(348.6,189.0,0.0));
#552=CARTESIAN_POINT('',(348.6,189.0,0.0));
#553=VECTOR('',#660,1.0);
#554=CARTESIAN_POINT('',(348.6,188.2,0.0));
#555=VECTOR('',#661,1.0);
#556=CARTESIAN_POINT('',(327.8,189.0,-20.0));
#557=CARTESIAN_POINT('',(348.6,189.0,-20.0));
#558=VECTOR('',#662,1.0);
#559=CARTESIAN_POINT('',(327.8,189.0,0.0));
#560=CARTESIAN_POINT('',(327.8,189.0,0.0));
#561=VECTOR('',#663,1.0);
#562=CARTESIAN_POINT('',(348.6,189.0,0.0));
#563=VECTOR('',#664,1.0);
#564=CARTESIAN_POINT('',(327.8,115.0,-20.0));
#565=CARTESIAN_POINT('',(327.8,115.0,-20.0));
#566=VECTOR('',#665,1.0);
#567=CARTESIAN_POINT('',(327.8,115.0,0.0));
#568=CARTESIAN_POINT('',(327.8,115.0,0.0));
#569=VECTOR('',#666,1.0);
#570=CARTESIAN_POINT('',(327.8,115.0,0.0));
#571=VECTOR('',#667,1.0);
#572=CARTESIAN_POINT('',(308.6,95.8,-20.0));
#573=AXIS2_PLACEMENT_3D('',#668,#669,#670);
#574=CARTESIAN_POINT('',(308.6,95.8,0.0));
#575=CARTESIAN_POINT('',(308.6,95.8,0.0));
#576=VECTOR('',#671,1.0);
#577=AXIS2_PLACEMENT_3D('',#672,#673,#674);
#578=CARTESIAN_POINT('',(125.0,95.8,-20.0));
#579=CARTESIAN_POINT('',(125.0,95.8,-20.0));
#580=VECTOR('',#675,1.0);
#581=CARTESIAN_POINT('',(125.0,95.8,0.0));
#582=CARTESIAN_POINT('',(125.0,95.8,0.0));
#583=VECTOR('',#676,1.0);
#584=CARTESIAN_POINT('',(125.0,95.8,0.0));
#585=VECTOR('',#677,1.0);
#586=CARTESIAN_POINT('',(105.8,115.0,-20.0));
#587=AXIS2_PLACEMENT_3D('',#678,#679,#680);
#588=CARTESIAN_POINT('',(105.8,115.0,0.0));
#589=CARTESIAN_POINT('',(105.8,115.0,0.0));
#590=VECTOR('',#681,1.0);
#591=AXIS2_PLACEMENT_3D('',#682,#683,#684);
#592=CARTESIAN_POINT('',(105.8,189.0,-20.0));
#593=CARTESIAN_POINT('',(105.8,189.0,-20.0));
#594=VECTOR('',#685,1.0);
#595=CARTESIAN_POINT('',(105.8,189.0,0.0));
#596=CARTESIAN_POINT('',(105.8,189.0,0.0));
#597=VECTOR('',#686,1.0);
#598=CARTESIAN_POINT('',(105.8,189.0,0.0));
#599=VECTOR('',#687,1.0);
#600=CARTESIAN_POINT('',(85.0,189.0,-20.0));
#601=CARTESIAN_POINT('',(105.8,189.0,-20.0));
#602=VECTOR('',#688,1.0);
#603=CARTESIAN_POINT('',(85.0,189.0,0.0));
#604=CARTESIAN_POINT('',(85.0,189.0,0.0));
#605=VECTOR('',#689,1.0);
#606=CARTESIAN_POINT('',(105.8,189.0,0.0));
#607=VECTOR('',#690,1.0);
#608=CARTESIAN_POINT('',(85.0,188.2,-20.0));
#609=CARTESIAN_POINT('',(85.0,189.0,-20.0));
#610=VECTOR('',#691,1.0);
#611=CARTESIAN_POINT('',(85.0,188.2,0.0));
#612=CARTESIAN_POINT('',(85.0,188.2,0.0));
#613=VECTOR('',#692,1.0);
#614=CARTESIAN_POINT('',(85.0,189.0,0.0));
#615=VECTOR('',#693,1.0);
#616=CARTESIAN_POINT('',(105.0,188.2,-20.0));
#617=VECTOR('',#694,1.0);
#618=CARTESIAN_POINT('',(105.0,188.2,0.0));
#619=VECTOR('',#695,1.0);
#620=CARTESIAN_POINT('',(95.0,188.2,-10.0));
#621=DIRECTION('',(-0.0,-1.0,-0.0));
#622=DIRECTION('',(-1.0,0.0,0.0));
#623=CARTESIAN_POINT('',(95.0,189.0,-10.0));
#624=DIRECTION('',(0.0,1.0,0.0));
#625=DIRECTION('',(-1.0,0.0,0.0));
#626=CARTESIAN_POINT('',(338.6,188.2,-10.0));
#627=DIRECTION('',(-0.0,-1.0,-0.0));
#628=DIRECTION('',(-1.0,0.0,0.0));
#629=CARTESIAN_POINT('',(338.6,189.0,-10.0));
#630=DIRECTION('',(0.0,1.0,0.0));
#631=DIRECTION('',(-1.0,0.0,0.0));
#632=DIRECTION('',(0.0,-1.0,0.0));
#633=DIRECTION('',(0.0,0.0,-1.0));
#634=DIRECTION('',(0.0,-1.0,0.0));
#635=DIRECTION('',(0.0,0.0,-1.0));
#636=CARTESIAN_POINT('',(125.0,115.0,-20.0));
#637=DIRECTION('',(0.0,0.0,1.0));
#638=DIRECTION('',(1.0,0.0,0.0));
#639=DIRECTION('',(0.0,0.0,-1.0));
#640=CARTESIAN_POINT('',(125.0,115.0,0.0));
#641=DIRECTION('',(0.0,0.0,1.0));
#642=DIRECTION('',(1.0,0.0,0.0));
#643=DIRECTION('',(1.0,0.0,0.0));
#644=DIRECTION('',(0.0,0.0,-1.0));
#645=DIRECTION('',(1.0,0.0,0.0));
#646=CARTESIAN_POINT('',(308.6,115.0,-20.0));
#647=DIRECTION('',(0.0,0.0,1.0));
#648=DIRECTION('',(1.0,0.0,0.0));
#649=DIRECTION('',(0.0,0.0,-1.0));
#650=CARTESIAN_POINT('',(308.6,115.0,0.0));
#651=DIRECTION('',(0.0,0.0,1.0));
#652=DIRECTION('',(1.0,0.0,0.0));
#653=DIRECTION('',(0.0,1.0,0.0));
#654=DIRECTION('',(0.0,0.0,-1.0));
#655=DIRECTION('',(0.0,1.0,0.0));
#656=DIRECTION('',(1.0,0.0,0.0));
#657=DIRECTION('',(0.0,0.0,-1.0));
#658=DIRECTION('',(-1.0,0.0,0.0));
#659=DIRECTION('',(0.0,1.0,0.0));
#660=DIRECTION('',(0.0,0.0,-1.0));
#661=DIRECTION('',(0.0,1.0,0.0));
#662=DIRECTION('',(-1.0,0.0,0.0));
#663=DIRECTION('',(0.0,0.0,-1.0));
#664=DIRECTION('',(-1.0,0.0,0.0));
#665=DIRECTION('',(-0.0,-1.0,-0.0));
#666=DIRECTION('',(0.0,0.0,-1.0));
#667=DIRECTION('',(0.0,1.0,0.0));
#668=CARTESIAN_POINT('',(308.6,115.0,-20.0));
#669=DIRECTION('',(0.0,0.0,-1.0));
#670=DIRECTION('',(1.0,0.0,0.0));
#671=DIRECTION('',(0.0,0.0,-1.0));
#672=CARTESIAN_POINT('',(308.6,115.0,0.0));
#673=DIRECTION('',(0.0,0.0,1.0));
#674=DIRECTION('',(1.0,0.0,0.0));
#675=DIRECTION('',(-1.0,-0.0,-0.0));
#676=DIRECTION('',(0.0,0.0,-1.0));
#677=DIRECTION('',(1.0,0.0,0.0));
#678=CARTESIAN_POINT('',(125.0,115.0,-20.0));
#679=DIRECTION('',(0.0,0.0,-1.0));
#680=DIRECTION('',(1.0,0.0,0.0));
#681=DIRECTION('',(0.0,0.0,-1.0));
#682=CARTESIAN_POINT('',(125.0,115.0,0.0));
#683=DIRECTION('',(0.0,0.0,1.0));
#684=DIRECTION('',(1.0,0.0,0.0));
#685=DIRECTION('',(0.0,1.0,0.0));
#686=DIRECTION('',(0.0,0.0,-1.0));
#687=DIRECTION('',(0.0,-1.0,0.0));
#688=DIRECTION('',(-1.0,0.0,0.0));
#689=DIRECTION('',(0.0,0.0,-1.0));
#690=DIRECTION('',(-1.0,0.0,0.0));
#691=DIRECTION('',(0.0,-1.0,0.0));
#692=DIRECTION('',(0.0,0.0,-1.0));
#693=DIRECTION('',(0.0,-1.0,0.0));
#694=DIRECTION('',(1.0,0.0,0.0));
#695=DIRECTION('',(-1.0,0.0,0.0));
ENDSEC;
END-ISO-10303-21;
