ISO-10303-21;
HEADER;
FILE_DESCRIPTION(('STEP AP214'),'1');
FILE_NAME('4021002_V T-VRO 125 Breitkanal weiss L 1000 mm.STP','2023-10-18T12:46:22',(' '),(' '),'Spatial InterOp 3D',' ',' ');
FILE_SCHEMA(('AUTOMOTIVE_DESIGN { 1 0 10303 214 1 1 1 1 }'));
ENDSEC;
DATA;
#1=PRODUCT_DEFINITION_CONTEXT('',#15,'design');
#2=APPLICATION_PROTOCOL_DEFINITION('INTERNATIONAL STANDARD','automotive_design',1994,#15);
#3=PRODUCT_CATEGORY_RELATIONSHIP('NONE','NONE',#16,#17);
#4=SHAPE_DEFINITION_REPRESENTATION(#18,#19);
#5=PRODUCT_DEFINITION_CONTEXT('',#20,'design');
#6=APPLICATION_PROTOCOL_DEFINITION('INTERNATIONAL STANDARD','automotive_design',1994,#20);
#7=PRODUCT_CATEGORY_RELATIONSHIP('NONE','NONE',#21,#22);
#8=CONTEXT_DEPENDENT_SHAPE_REPRESENTATION(#23,#24);
#9=SHAPE_DEFINITION_REPRESENTATION(#25,#26);
#10=SHAPE_REPRESENTATION_RELATIONSHIP('NONE','NONE',#26,#27);
#11= (GEOMETRIC_REPRESENTATION_CONTEXT(3)GLOBAL_UNCERTAINTY_ASSIGNED_CONTEXT((#30))GLOBAL_UNIT_ASSIGNED_CONTEXT((#32,#33,#34))REPRESENTATION_CONTEXT('NONE','WORKSPACE'));
#15=APPLICATION_CONTEXT(' ');
#16=PRODUCT_CATEGORY('part','NONE');
#17=PRODUCT_RELATED_PRODUCT_CATEGORY('detail',' ',(#36));
#18=PRODUCT_DEFINITION_SHAPE('NONE','NONE',#37);
#19=SHAPE_REPRESENTATION('4021002_V T-VRO 125 Breitkanal weiss L 1000 mm',(#38,#39),#40);
#20=APPLICATION_CONTEXT(' ');
#21=PRODUCT_CATEGORY('part','NONE');
#22=PRODUCT_RELATED_PRODUCT_CATEGORY('detail',' ',(#41));
#23=(REPRESENTATION_RELATIONSHIP('','',#26,#19)REPRESENTATION_RELATIONSHIP_WITH_TRANSFORMATION(#44)SHAPE_REPRESENTATION_RELATIONSHIP());
#24=PRODUCT_DEFINITION_SHAPE('NAUO-PROD-DEF','NAUO-PROD-DEF',#46);
#25=PRODUCT_DEFINITION_SHAPE('NONE','NONE',#47);
#26=SHAPE_REPRESENTATION('',(#38),#40);
#27=ADVANCED_BREP_SHAPE_REPRESENTATION('',(#48),#11);
#30=UNCERTAINTY_MEASURE_WITH_UNIT(LENGTH_MEASURE(1.0E-06),#32,'','');
#32= (CONVERSION_BASED_UNIT('MILLIMETRE',#51)LENGTH_UNIT()NAMED_UNIT(#54));
#33= (NAMED_UNIT(#56)PLANE_ANGLE_UNIT()SI_UNIT($,.RADIAN.));
#34= (NAMED_UNIT(#56)SOLID_ANGLE_UNIT()SI_UNIT($,.STERADIAN.));
#36=PRODUCT('4021002_V T-VRO 125 Breitkanal weiss L 1000 mm','4021002_V T-VRO 125 Breitkanal weiss L 1000 mm','PART--DESC',(#62));
#37=PRODUCT_DEFINITION('4021002_V T-VRO 125 Breitkanal weiss L 1000 mm','4021002_V T-VRO 125 Breitkanal weiss L 1000 mm',#63,#1);
#38=AXIS2_PLACEMENT_3D('',#64,#65,#66);
#39=AXIS2_PLACEMENT_3D('',#67,#68,#69);
#40= (GEOMETRIC_REPRESENTATION_CONTEXT(3)GLOBAL_UNCERTAINTY_ASSIGNED_CONTEXT((#72))GLOBAL_UNIT_ASSIGNED_CONTEXT((#74,#75,#76))REPRESENTATION_CONTEXT('NONE','WORKSPACE'));
#41=PRODUCT('ASSEM1','ASSEM1','PART-ASSEM1-DESC',(#78));
#44=ITEM_DEFINED_TRANSFORMATION('','',#38,#39);
#46=NEXT_ASSEMBLY_USAGE_OCCURRENCE('4021002 T-VRO 125 Breitkanal 1000','4021002 T-VRO 125 Breitkanal 1000','4021002 T-VRO 125 Breitkanal 1000',#37,#47,$);
#47=PRODUCT_DEFINITION('','NONE',#79,#5);
#48=MANIFOLD_SOLID_BREP('',#80);
#51=LENGTH_MEASURE_WITH_UNIT(LENGTH_MEASURE(1.0),#81);
#54=DIMENSIONAL_EXPONENTS(1.0,0.0,0.0,0.0,0.0,0.0,0.0);
#56=DIMENSIONAL_EXPONENTS(0.0,0.0,0.0,0.0,0.0,0.0,0.0);
#62=PRODUCT_CONTEXT('',#15,'mechanical');
#63=PRODUCT_DEFINITION_FORMATION_WITH_SPECIFIED_SOURCE(' ','NONE',#36,.NOT_KNOWN.);
#64=CARTESIAN_POINT('',(0.0,0.0,0.0));
#65=DIRECTION('',(0.0,0.0,1.0));
#66=DIRECTION('',(1.0,0.0,0.0));
#67=CARTESIAN_POINT('',(0.0,111.2,-134.5));
#68=DIRECTION('',(-1.0,0.0,0.0));
#69=DIRECTION('',(0.0,-1.0,0.0));
#72=UNCERTAINTY_MEASURE_WITH_UNIT(LENGTH_MEASURE(1.0E-06),#74,'','');
#74= (CONVERSION_BASED_UNIT('MILLIMETRE',#84)LENGTH_UNIT()NAMED_UNIT(#87));
#75= (NAMED_UNIT(#89)PLANE_ANGLE_UNIT()SI_UNIT($,.RADIAN.));
#76= (NAMED_UNIT(#89)SOLID_ANGLE_UNIT()SI_UNIT($,.STERADIAN.));
#78=PRODUCT_CONTEXT('',#20,'mechanical');
#79=PRODUCT_DEFINITION_FORMATION_WITH_SPECIFIED_SOURCE(' ','NONE',#41,.NOT_KNOWN.);
#80=CLOSED_SHELL('',(#95,#96,#97,#98,#99,#100,#101,#102,#103,#104,#105,#106,#107,#108,#109,#110,#111,#112));
#81= (NAMED_UNIT(#54)LENGTH_UNIT()SI_UNIT(.MILLI.,.METRE.));
#84=LENGTH_MEASURE_WITH_UNIT(LENGTH_MEASURE(1.0),#114);
#87=DIMENSIONAL_EXPONENTS(1.0,0.0,0.0,0.0,0.0,0.0,0.0);
#89=DIMENSIONAL_EXPONENTS(0.0,0.0,0.0,0.0,0.0,0.0,0.0);
#95=ADVANCED_FACE('',(#115),#116,.T.);
#96=ADVANCED_FACE('',(#117),#118,.T.);
#97=ADVANCED_FACE('',(#119),#120,.T.);
#98=ADVANCED_FACE('',(#121),#122,.T.);
#99=ADVANCED_FACE('',(#123),#124,.T.);
#100=ADVANCED_FACE('',(#125),#126,.T.);
#101=ADVANCED_FACE('',(#127),#128,.T.);
#102=ADVANCED_FACE('',(#129),#130,.T.);
#103=ADVANCED_FACE('',(#131),#132,.F.);
#104=ADVANCED_FACE('',(#133),#134,.T.);
#105=ADVANCED_FACE('',(#135),#136,.F.);
#106=ADVANCED_FACE('',(#137),#138,.T.);
#107=ADVANCED_FACE('',(#139),#140,.F.);
#108=ADVANCED_FACE('',(#141),#142,.T.);
#109=ADVANCED_FACE('',(#143),#144,.F.);
#110=ADVANCED_FACE('',(#145),#146,.T.);
#111=ADVANCED_FACE('',(#147,#148),#149,.F.);
#112=ADVANCED_FACE('',(#150,#151),#152,.T.);
#114= (NAMED_UNIT(#87)LENGTH_UNIT()SI_UNIT(.MILLI.,.METRE.));
#115=FACE_OUTER_BOUND('',#154,.T.);
#116=CYLINDRICAL_SURFACE('',#155,5.0);
#117=FACE_OUTER_BOUND('',#156,.T.);
#118=PLANE('',#157);
#119=FACE_OUTER_BOUND('',#158,.T.);
#120=CYLINDRICAL_SURFACE('',#159,5.0);
#121=FACE_OUTER_BOUND('',#160,.T.);
#122=PLANE('',#161);
#123=FACE_OUTER_BOUND('',#162,.T.);
#124=CYLINDRICAL_SURFACE('',#163,5.0);
#125=FACE_OUTER_BOUND('',#164,.T.);
#126=PLANE('',#165);
#127=FACE_OUTER_BOUND('',#166,.T.);
#128=CYLINDRICAL_SURFACE('',#167,5.0);
#129=FACE_OUTER_BOUND('',#168,.T.);
#130=PLANE('',#169);
#131=FACE_OUTER_BOUND('',#170,.T.);
#132=CYLINDRICAL_SURFACE('',#171,3.4);
#133=FACE_OUTER_BOUND('',#172,.T.);
#134=PLANE('',#173);
#135=FACE_OUTER_BOUND('',#174,.T.);
#136=CYLINDRICAL_SURFACE('',#175,3.4);
#137=FACE_OUTER_BOUND('',#176,.T.);
#138=PLANE('',#177);
#139=FACE_OUTER_BOUND('',#178,.T.);
#140=CYLINDRICAL_SURFACE('',#179,3.4);
#141=FACE_OUTER_BOUND('',#180,.T.);
#142=PLANE('',#181);
#143=FACE_OUTER_BOUND('',#182,.T.);
#144=CYLINDRICAL_SURFACE('',#183,3.4);
#145=FACE_OUTER_BOUND('',#184,.T.);
#146=PLANE('',#185);
#147=FACE_BOUND('',#186,.T.);
#148=FACE_OUTER_BOUND('',#187,.T.);
#149=PLANE('',#188);
#150=FACE_BOUND('',#189,.T.);
#151=FACE_OUTER_BOUND('',#190,.T.);
#152=PLANE('',#191);
#154=EDGE_LOOP('',(#192,#193,#194,#195));
#155=AXIS2_PLACEMENT_3D('',#196,#197,#198);
#156=EDGE_LOOP('',(#199,#200,#201,#202));
#157=AXIS2_PLACEMENT_3D('',#203,#204,#205);
#158=EDGE_LOOP('',(#206,#207,#208,#209));
#159=AXIS2_PLACEMENT_3D('',#210,#211,#212);
#160=EDGE_LOOP('',(#213,#214,#215,#216));
#161=AXIS2_PLACEMENT_3D('',#217,#218,#219);
#162=EDGE_LOOP('',(#220,#221,#222,#223));
#163=AXIS2_PLACEMENT_3D('',#224,#225,#226);
#164=EDGE_LOOP('',(#227,#228,#229,#230));
#165=AXIS2_PLACEMENT_3D('',#231,#232,#233);
#166=EDGE_LOOP('',(#234,#235,#236,#237));
#167=AXIS2_PLACEMENT_3D('',#238,#239,#240);
#168=EDGE_LOOP('',(#241,#242,#243,#244));
#169=AXIS2_PLACEMENT_3D('',#245,#246,#247);
#170=EDGE_LOOP('',(#248,#249,#250,#251));
#171=AXIS2_PLACEMENT_3D('',#252,#253,#254);
#172=EDGE_LOOP('',(#255,#256,#257,#258));
#173=AXIS2_PLACEMENT_3D('',#259,#260,#261);
#174=EDGE_LOOP('',(#262,#263,#264,#265));
#175=AXIS2_PLACEMENT_3D('',#266,#267,#268);
#176=EDGE_LOOP('',(#269,#270,#271,#272));
#177=AXIS2_PLACEMENT_3D('',#273,#274,#275);
#178=EDGE_LOOP('',(#276,#277,#278,#279));
#179=AXIS2_PLACEMENT_3D('',#280,#281,#282);
#180=EDGE_LOOP('',(#283,#284,#285,#286));
#181=AXIS2_PLACEMENT_3D('',#287,#288,#289);
#182=EDGE_LOOP('',(#290,#291,#292,#293));
#183=AXIS2_PLACEMENT_3D('',#294,#295,#296);
#184=EDGE_LOOP('',(#297,#298,#299,#300));
#185=AXIS2_PLACEMENT_3D('',#301,#302,#303);
#186=EDGE_LOOP('',(#304,#305,#306,#307,#308,#309,#310,#311));
#187=EDGE_LOOP('',(#312,#313,#314,#315,#316,#317,#318,#319));
#188=AXIS2_PLACEMENT_3D('',#320,#321,#322);
#189=EDGE_LOOP('',(#323,#324,#325,#326,#327,#328,#329,#330));
#190=EDGE_LOOP('',(#331,#332,#333,#334,#335,#336,#337,#338));
#191=AXIS2_PLACEMENT_3D('',#339,#340,#341);
#192=ORIENTED_EDGE('',*,*,#342,.T.);
#193=ORIENTED_EDGE('',*,*,#343,.F.);
#194=ORIENTED_EDGE('',*,*,#344,.F.);
#195=ORIENTED_EDGE('',*,*,#345,.T.);
#196=CARTESIAN_POINT('',(216.2,112.5,0.0));
#197=DIRECTION('',(0.0,0.0,-1.0));
#198=DIRECTION('',(1.0,0.0,0.0));
#199=ORIENTED_EDGE('',*,*,#346,.T.);
#200=ORIENTED_EDGE('',*,*,#347,.F.);
#201=ORIENTED_EDGE('',*,*,#348,.F.);
#202=ORIENTED_EDGE('',*,*,#343,.T.);
#203=CARTESIAN_POINT('',(221.2,134.5,0.0));
#204=DIRECTION('',(1.0,-0.0,0.0));
#205=DIRECTION('',(-0.0,-1.0,-0.0));
#206=ORIENTED_EDGE('',*,*,#349,.T.);
#207=ORIENTED_EDGE('',*,*,#350,.F.);
#208=ORIENTED_EDGE('',*,*,#351,.F.);
#209=ORIENTED_EDGE('',*,*,#347,.T.);
#210=CARTESIAN_POINT('',(216.2,156.5,0.0));
#211=DIRECTION('',(0.0,0.0,-1.0));
#212=DIRECTION('',(1.0,0.0,0.0));
#213=ORIENTED_EDGE('',*,*,#352,.T.);
#214=ORIENTED_EDGE('',*,*,#353,.F.);
#215=ORIENTED_EDGE('',*,*,#354,.T.);
#216=ORIENTED_EDGE('',*,*,#350,.T.);
#217=CARTESIAN_POINT('',(111.2,161.5,0.0));
#218=DIRECTION('',(-0.0,1.0,0.0));
#219=DIRECTION('',(1.0,0.0,0.0));
#220=ORIENTED_EDGE('',*,*,#355,.T.);
#221=ORIENTED_EDGE('',*,*,#356,.F.);
#222=ORIENTED_EDGE('',*,*,#357,.F.);
#223=ORIENTED_EDGE('',*,*,#353,.T.);
#224=CARTESIAN_POINT('',(6.19999999999999,156.5,0.0));
#225=DIRECTION('',(0.0,0.0,-1.0));
#226=DIRECTION('',(1.0,0.0,0.0));
#227=ORIENTED_EDGE('',*,*,#358,.T.);
#228=ORIENTED_EDGE('',*,*,#359,.F.);
#229=ORIENTED_EDGE('',*,*,#360,.T.);
#230=ORIENTED_EDGE('',*,*,#356,.T.);
#231=CARTESIAN_POINT('',(1.19999999999999,134.5,0.0));
#232=DIRECTION('',(-1.0,0.0,0.0));
#233=DIRECTION('',(0.0,1.0,0.0));
#234=ORIENTED_EDGE('',*,*,#361,.T.);
#235=ORIENTED_EDGE('',*,*,#362,.F.);
#236=ORIENTED_EDGE('',*,*,#363,.F.);
#237=ORIENTED_EDGE('',*,*,#359,.T.);
#238=CARTESIAN_POINT('',(6.19999999999999,112.5,0.0));
#239=DIRECTION('',(0.0,0.0,-1.0));
#240=DIRECTION('',(1.0,0.0,0.0));
#241=ORIENTED_EDGE('',*,*,#364,.T.);
#242=ORIENTED_EDGE('',*,*,#345,.F.);
#243=ORIENTED_EDGE('',*,*,#365,.F.);
#244=ORIENTED_EDGE('',*,*,#362,.T.);
#245=CARTESIAN_POINT('',(111.2,107.5,0.0));
#246=DIRECTION('',(0.0,-1.0,-0.0));
#247=DIRECTION('',(-1.0,0.0,-0.0));
#248=ORIENTED_EDGE('',*,*,#366,.T.);
#249=ORIENTED_EDGE('',*,*,#367,.F.);
#250=ORIENTED_EDGE('',*,*,#368,.T.);
#251=ORIENTED_EDGE('',*,*,#369,.T.);
#252=CARTESIAN_POINT('',(216.2,112.5,0.0));
#253=DIRECTION('',(0.0,0.0,-1.0));
#254=DIRECTION('',(1.0,0.0,0.0));
#255=ORIENTED_EDGE('',*,*,#370,.T.);
#256=ORIENTED_EDGE('',*,*,#371,.F.);
#257=ORIENTED_EDGE('',*,*,#372,.T.);
#258=ORIENTED_EDGE('',*,*,#367,.T.);
#259=CARTESIAN_POINT('',(111.2,109.1,0.0));
#260=DIRECTION('',(-0.0,1.0,0.0));
#261=DIRECTION('',(1.0,0.0,0.0));
#262=ORIENTED_EDGE('',*,*,#373,.T.);
#263=ORIENTED_EDGE('',*,*,#374,.F.);
#264=ORIENTED_EDGE('',*,*,#375,.T.);
#265=ORIENTED_EDGE('',*,*,#371,.T.);
#266=CARTESIAN_POINT('',(6.19999999999999,112.5,0.0));
#267=DIRECTION('',(0.0,0.0,-1.0));
#268=DIRECTION('',(1.0,0.0,0.0));
#269=ORIENTED_EDGE('',*,*,#376,.T.);
#270=ORIENTED_EDGE('',*,*,#377,.F.);
#271=ORIENTED_EDGE('',*,*,#378,.F.);
#272=ORIENTED_EDGE('',*,*,#374,.T.);
#273=CARTESIAN_POINT('',(2.79999999999999,134.5,0.0));
#274=DIRECTION('',(1.0,-0.0,0.0));
#275=DIRECTION('',(-0.0,-1.0,-0.0));
#276=ORIENTED_EDGE('',*,*,#379,.T.);
#277=ORIENTED_EDGE('',*,*,#380,.F.);
#278=ORIENTED_EDGE('',*,*,#381,.T.);
#279=ORIENTED_EDGE('',*,*,#377,.T.);
#280=CARTESIAN_POINT('',(6.19999999999999,156.5,0.0));
#281=DIRECTION('',(0.0,0.0,-1.0));
#282=DIRECTION('',(1.0,0.0,0.0));
#283=ORIENTED_EDGE('',*,*,#382,.T.);
#284=ORIENTED_EDGE('',*,*,#383,.F.);
#285=ORIENTED_EDGE('',*,*,#384,.F.);
#286=ORIENTED_EDGE('',*,*,#380,.T.);
#287=CARTESIAN_POINT('',(111.2,159.9,0.0));
#288=DIRECTION('',(0.0,-1.0,-0.0));
#289=DIRECTION('',(-1.0,0.0,-0.0));
#290=ORIENTED_EDGE('',*,*,#385,.T.);
#291=ORIENTED_EDGE('',*,*,#386,.F.);
#292=ORIENTED_EDGE('',*,*,#387,.T.);
#293=ORIENTED_EDGE('',*,*,#383,.T.);
#294=CARTESIAN_POINT('',(216.2,156.5,0.0));
#295=DIRECTION('',(0.0,0.0,-1.0));
#296=DIRECTION('',(1.0,0.0,0.0));
#297=ORIENTED_EDGE('',*,*,#388,.T.);
#298=ORIENTED_EDGE('',*,*,#369,.F.);
#299=ORIENTED_EDGE('',*,*,#389,.T.);
#300=ORIENTED_EDGE('',*,*,#386,.T.);
#301=CARTESIAN_POINT('',(219.6,134.5,0.0));
#302=DIRECTION('',(-1.0,0.0,0.0));
#303=DIRECTION('',(0.0,1.0,0.0));
#304=ORIENTED_EDGE('',*,*,#366,.F.);
#305=ORIENTED_EDGE('',*,*,#388,.F.);
#306=ORIENTED_EDGE('',*,*,#385,.F.);
#307=ORIENTED_EDGE('',*,*,#382,.F.);
#308=ORIENTED_EDGE('',*,*,#379,.F.);
#309=ORIENTED_EDGE('',*,*,#376,.F.);
#310=ORIENTED_EDGE('',*,*,#373,.F.);
#311=ORIENTED_EDGE('',*,*,#370,.F.);
#312=ORIENTED_EDGE('',*,*,#342,.F.);
#313=ORIENTED_EDGE('',*,*,#364,.F.);
#314=ORIENTED_EDGE('',*,*,#361,.F.);
#315=ORIENTED_EDGE('',*,*,#358,.F.);
#316=ORIENTED_EDGE('',*,*,#355,.F.);
#317=ORIENTED_EDGE('',*,*,#352,.F.);
#318=ORIENTED_EDGE('',*,*,#349,.F.);
#319=ORIENTED_EDGE('',*,*,#346,.F.);
#320=CARTESIAN_POINT('',(111.2,134.5,-1000.0));
#321=DIRECTION('',(0.0,0.0,1.0));
#322=DIRECTION('',(1.0,0.0,0.0));
#323=ORIENTED_EDGE('',*,*,#389,.F.);
#324=ORIENTED_EDGE('',*,*,#368,.F.);
#325=ORIENTED_EDGE('',*,*,#372,.F.);
#326=ORIENTED_EDGE('',*,*,#375,.F.);
#327=ORIENTED_EDGE('',*,*,#378,.T.);
#328=ORIENTED_EDGE('',*,*,#381,.F.);
#329=ORIENTED_EDGE('',*,*,#384,.T.);
#330=ORIENTED_EDGE('',*,*,#387,.F.);
#331=ORIENTED_EDGE('',*,*,#365,.T.);
#332=ORIENTED_EDGE('',*,*,#344,.T.);
#333=ORIENTED_EDGE('',*,*,#348,.T.);
#334=ORIENTED_EDGE('',*,*,#351,.T.);
#335=ORIENTED_EDGE('',*,*,#354,.F.);
#336=ORIENTED_EDGE('',*,*,#357,.T.);
#337=ORIENTED_EDGE('',*,*,#360,.F.);
#338=ORIENTED_EDGE('',*,*,#363,.T.);
#339=CARTESIAN_POINT('',(111.2,134.5,0.0));
#340=DIRECTION('',(0.0,0.0,1.0));
#341=DIRECTION('',(1.0,0.0,0.0));
#342=EDGE_CURVE('',#390,#391,#392,.T.);
#343=EDGE_CURVE('',#393,#391,#394,.T.);
#344=EDGE_CURVE('',#395,#393,#396,.T.);
#345=EDGE_CURVE('',#395,#390,#397,.T.);
#346=EDGE_CURVE('',#391,#398,#399,.T.);
#347=EDGE_CURVE('',#400,#398,#401,.T.);
#348=EDGE_CURVE('',#393,#400,#402,.T.);
#349=EDGE_CURVE('',#398,#403,#404,.T.);
#350=EDGE_CURVE('',#405,#403,#406,.T.);
#351=EDGE_CURVE('',#400,#405,#407,.T.);
#352=EDGE_CURVE('',#403,#408,#409,.T.);
#353=EDGE_CURVE('',#410,#408,#411,.T.);
#354=EDGE_CURVE('',#410,#405,#412,.T.);
#355=EDGE_CURVE('',#408,#413,#414,.T.);
#356=EDGE_CURVE('',#415,#413,#416,.T.);
#357=EDGE_CURVE('',#410,#415,#417,.T.);
#358=EDGE_CURVE('',#413,#418,#419,.T.);
#359=EDGE_CURVE('',#420,#418,#421,.T.);
#360=EDGE_CURVE('',#420,#415,#422,.T.);
#361=EDGE_CURVE('',#418,#423,#424,.T.);
#362=EDGE_CURVE('',#425,#423,#426,.T.);
#363=EDGE_CURVE('',#420,#425,#427,.T.);
#364=EDGE_CURVE('',#423,#390,#428,.T.);
#365=EDGE_CURVE('',#425,#395,#429,.T.);
#366=EDGE_CURVE('',#430,#431,#432,.T.);
#367=EDGE_CURVE('',#433,#431,#434,.T.);
#368=EDGE_CURVE('',#433,#435,#436,.T.);
#369=EDGE_CURVE('',#435,#430,#437,.T.);
#370=EDGE_CURVE('',#431,#438,#439,.T.);
#371=EDGE_CURVE('',#440,#438,#441,.T.);
#372=EDGE_CURVE('',#440,#433,#442,.T.);
#373=EDGE_CURVE('',#438,#443,#444,.T.);
#374=EDGE_CURVE('',#445,#443,#446,.T.);
#375=EDGE_CURVE('',#445,#440,#447,.T.);
#376=EDGE_CURVE('',#443,#448,#449,.T.);
#377=EDGE_CURVE('',#450,#448,#451,.T.);
#378=EDGE_CURVE('',#445,#450,#452,.T.);
#379=EDGE_CURVE('',#448,#453,#454,.T.);
#380=EDGE_CURVE('',#455,#453,#456,.T.);
#381=EDGE_CURVE('',#455,#450,#457,.T.);
#382=EDGE_CURVE('',#453,#458,#459,.T.);
#383=EDGE_CURVE('',#460,#458,#461,.T.);
#384=EDGE_CURVE('',#455,#460,#462,.T.);
#385=EDGE_CURVE('',#458,#463,#464,.T.);
#386=EDGE_CURVE('',#465,#463,#466,.T.);
#387=EDGE_CURVE('',#465,#460,#467,.T.);
#388=EDGE_CURVE('',#463,#430,#468,.T.);
#389=EDGE_CURVE('',#435,#465,#469,.T.);
#390=VERTEX_POINT('',#470);
#391=VERTEX_POINT('',#471);
#392=CIRCLE('',#472,5.0);
#393=VERTEX_POINT('',#473);
#394=LINE('',#474,#475);
#395=VERTEX_POINT('',#476);
#396=CIRCLE('',#477,5.0);
#397=LINE('',#478,#479);
#398=VERTEX_POINT('',#480);
#399=LINE('',#481,#482);
#400=VERTEX_POINT('',#483);
#401=LINE('',#484,#485);
#402=LINE('',#486,#487);
#403=VERTEX_POINT('',#488);
#404=CIRCLE('',#489,5.0);
#405=VERTEX_POINT('',#490);
#406=LINE('',#491,#492);
#407=CIRCLE('',#493,5.0);
#408=VERTEX_POINT('',#494);
#409=LINE('',#495,#496);
#410=VERTEX_POINT('',#497);
#411=LINE('',#498,#499);
#412=LINE('',#500,#501);
#413=VERTEX_POINT('',#502);
#414=CIRCLE('',#503,5.0);
#415=VERTEX_POINT('',#504);
#416=LINE('',#505,#506);
#417=CIRCLE('',#507,5.0);
#418=VERTEX_POINT('',#508);
#419=LINE('',#509,#510);
#420=VERTEX_POINT('',#511);
#421=LINE('',#512,#513);
#422=LINE('',#514,#515);
#423=VERTEX_POINT('',#516);
#424=CIRCLE('',#517,5.0);
#425=VERTEX_POINT('',#518);
#426=LINE('',#519,#520);
#427=CIRCLE('',#521,5.0);
#428=LINE('',#522,#523);
#429=LINE('',#524,#525);
#430=VERTEX_POINT('',#526);
#431=VERTEX_POINT('',#527);
#432=CIRCLE('',#528,3.4);
#433=VERTEX_POINT('',#529);
#434=LINE('',#530,#531);
#435=VERTEX_POINT('',#532);
#436=CIRCLE('',#533,3.4);
#437=LINE('',#534,#535);
#438=VERTEX_POINT('',#536);
#439=LINE('',#537,#538);
#440=VERTEX_POINT('',#539);
#441=LINE('',#540,#541);
#442=LINE('',#542,#543);
#443=VERTEX_POINT('',#544);
#444=CIRCLE('',#545,3.4);
#445=VERTEX_POINT('',#546);
#446=LINE('',#547,#548);
#447=CIRCLE('',#549,3.4);
#448=VERTEX_POINT('',#550);
#449=LINE('',#551,#552);
#450=VERTEX_POINT('',#553);
#451=LINE('',#554,#555);
#452=LINE('',#556,#557);
#453=VERTEX_POINT('',#558);
#454=CIRCLE('',#559,3.4);
#455=VERTEX_POINT('',#560);
#456=LINE('',#561,#562);
#457=CIRCLE('',#563,3.4);
#458=VERTEX_POINT('',#564);
#459=LINE('',#565,#566);
#460=VERTEX_POINT('',#567);
#461=LINE('',#568,#569);
#462=LINE('',#570,#571);
#463=VERTEX_POINT('',#572);
#464=CIRCLE('',#573,3.4);
#465=VERTEX_POINT('',#574);
#466=LINE('',#575,#576);
#467=CIRCLE('',#577,3.4);
#468=LINE('',#578,#579);
#469=LINE('',#580,#581);
#470=CARTESIAN_POINT('',(216.2,107.5,-1000.0));
#471=CARTESIAN_POINT('',(221.2,112.5,-1000.0));
#472=AXIS2_PLACEMENT_3D('',#582,#583,#584);
#473=CARTESIAN_POINT('',(221.2,112.5,0.0));
#474=CARTESIAN_POINT('',(221.2,112.5,0.0));
#475=VECTOR('',#585,1.0);
#476=CARTESIAN_POINT('',(216.2,107.5,0.0));
#477=AXIS2_PLACEMENT_3D('',#586,#587,#588);
#478=CARTESIAN_POINT('',(216.2,107.5,0.0));
#479=VECTOR('',#589,1.0);
#480=CARTESIAN_POINT('',(221.2,156.5,-1000.0));
#481=CARTESIAN_POINT('',(221.2,112.5,-1000.0));
#482=VECTOR('',#590,1.0);
#483=CARTESIAN_POINT('',(221.2,156.5,0.0));
#484=CARTESIAN_POINT('',(221.2,156.5,0.0));
#485=VECTOR('',#591,1.0);
#486=CARTESIAN_POINT('',(221.2,112.5,0.0));
#487=VECTOR('',#592,1.0);
#488=CARTESIAN_POINT('',(216.2,161.5,-1000.0));
#489=AXIS2_PLACEMENT_3D('',#593,#594,#595);
#490=CARTESIAN_POINT('',(216.2,161.5,0.0));
#491=CARTESIAN_POINT('',(216.2,161.5,0.0));
#492=VECTOR('',#596,1.0);
#493=AXIS2_PLACEMENT_3D('',#597,#598,#599);
#494=CARTESIAN_POINT('',(6.19999999999999,161.5,-1000.0));
#495=CARTESIAN_POINT('',(6.19999999999999,161.5,-1000.0));
#496=VECTOR('',#600,1.0);
#497=CARTESIAN_POINT('',(6.19999999999999,161.5,0.0));
#498=CARTESIAN_POINT('',(6.19999999999999,161.5,0.0));
#499=VECTOR('',#601,1.0);
#500=CARTESIAN_POINT('',(6.19999999999999,161.5,0.0));
#501=VECTOR('',#602,1.0);
#502=CARTESIAN_POINT('',(1.19999999999999,156.5,-1000.0));
#503=AXIS2_PLACEMENT_3D('',#603,#604,#605);
#504=CARTESIAN_POINT('',(1.19999999999999,156.5,0.0));
#505=CARTESIAN_POINT('',(1.19999999999999,156.5,0.0));
#506=VECTOR('',#606,1.0);
#507=AXIS2_PLACEMENT_3D('',#607,#608,#609);
#508=CARTESIAN_POINT('',(1.19999999999999,112.5,-1000.0));
#509=CARTESIAN_POINT('',(1.19999999999999,112.5,-1000.0));
#510=VECTOR('',#610,1.0);
#511=CARTESIAN_POINT('',(1.19999999999999,112.5,0.0));
#512=CARTESIAN_POINT('',(1.19999999999999,112.5,0.0));
#513=VECTOR('',#611,1.0);
#514=CARTESIAN_POINT('',(1.19999999999999,112.5,0.0));
#515=VECTOR('',#612,1.0);
#516=CARTESIAN_POINT('',(6.19999999999999,107.5,-1000.0));
#517=AXIS2_PLACEMENT_3D('',#613,#614,#615);
#518=CARTESIAN_POINT('',(6.19999999999999,107.5,0.0));
#519=CARTESIAN_POINT('',(6.19999999999999,107.5,0.0));
#520=VECTOR('',#616,1.0);
#521=AXIS2_PLACEMENT_3D('',#617,#618,#619);
#522=CARTESIAN_POINT('',(6.19999999999999,107.5,-1000.0));
#523=VECTOR('',#620,1.0);
#524=CARTESIAN_POINT('',(6.19999999999999,107.5,0.0));
#525=VECTOR('',#621,1.0);
#526=CARTESIAN_POINT('',(219.6,112.5,-1000.0));
#527=CARTESIAN_POINT('',(216.2,109.1,-1000.0));
#528=AXIS2_PLACEMENT_3D('',#622,#623,#624);
#529=CARTESIAN_POINT('',(216.2,109.1,0.0));
#530=CARTESIAN_POINT('',(216.2,109.1,0.0));
#531=VECTOR('',#625,1.0);
#532=CARTESIAN_POINT('',(219.6,112.5,0.0));
#533=AXIS2_PLACEMENT_3D('',#626,#627,#628);
#534=CARTESIAN_POINT('',(219.6,112.5,0.0));
#535=VECTOR('',#629,1.0);
#536=CARTESIAN_POINT('',(6.19999999999999,109.1,-1000.0));
#537=CARTESIAN_POINT('',(6.19999999999999,109.1,-1000.0));
#538=VECTOR('',#630,1.0);
#539=CARTESIAN_POINT('',(6.19999999999999,109.1,0.0));
#540=CARTESIAN_POINT('',(6.19999999999999,109.1,0.0));
#541=VECTOR('',#631,1.0);
#542=CARTESIAN_POINT('',(6.19999999999999,109.1,0.0));
#543=VECTOR('',#632,1.0);
#544=CARTESIAN_POINT('',(2.79999999999999,112.5,-1000.0));
#545=AXIS2_PLACEMENT_3D('',#633,#634,#635);
#546=CARTESIAN_POINT('',(2.79999999999999,112.5,0.0));
#547=CARTESIAN_POINT('',(2.79999999999999,112.5,0.0));
#548=VECTOR('',#636,1.0);
#549=AXIS2_PLACEMENT_3D('',#637,#638,#639);
#550=CARTESIAN_POINT('',(2.79999999999999,156.5,-1000.0));
#551=CARTESIAN_POINT('',(2.79999999999999,112.5,-1000.0));
#552=VECTOR('',#640,1.0);
#553=CARTESIAN_POINT('',(2.79999999999999,156.5,0.0));
#554=CARTESIAN_POINT('',(2.79999999999999,156.5,0.0));
#555=VECTOR('',#641,1.0);
#556=CARTESIAN_POINT('',(2.79999999999999,112.5,0.0));
#557=VECTOR('',#642,1.0);
#558=CARTESIAN_POINT('',(6.19999999999999,159.9,-1000.0));
#559=AXIS2_PLACEMENT_3D('',#643,#644,#645);
#560=CARTESIAN_POINT('',(6.19999999999999,159.9,0.0));
#561=CARTESIAN_POINT('',(6.19999999999999,159.9,0.0));
#562=VECTOR('',#646,1.0);
#563=AXIS2_PLACEMENT_3D('',#647,#648,#649);
#564=CARTESIAN_POINT('',(216.2,159.9,-1000.0));
#565=CARTESIAN_POINT('',(6.19999999999999,159.9,-1000.0));
#566=VECTOR('',#650,1.0);
#567=CARTESIAN_POINT('',(216.2,159.9,0.0));
#568=CARTESIAN_POINT('',(216.2,159.9,0.0));
#569=VECTOR('',#651,1.0);
#570=CARTESIAN_POINT('',(6.19999999999999,159.9,0.0));
#571=VECTOR('',#652,1.0);
#572=CARTESIAN_POINT('',(219.6,156.5,-1000.0));
#573=AXIS2_PLACEMENT_3D('',#653,#654,#655);
#574=CARTESIAN_POINT('',(219.6,156.5,0.0));
#575=CARTESIAN_POINT('',(219.6,156.5,0.0));
#576=VECTOR('',#656,1.0);
#577=AXIS2_PLACEMENT_3D('',#657,#658,#659);
#578=CARTESIAN_POINT('',(219.6,112.5,-1000.0));
#579=VECTOR('',#660,1.0);
#580=CARTESIAN_POINT('',(219.6,112.5,0.0));
#581=VECTOR('',#661,1.0);
#582=CARTESIAN_POINT('',(216.2,112.5,-1000.0));
#583=DIRECTION('',(0.0,0.0,1.0));
#584=DIRECTION('',(1.0,0.0,0.0));
#585=DIRECTION('',(0.0,0.0,-1.0));
#586=CARTESIAN_POINT('',(216.2,112.5,0.0));
#587=DIRECTION('',(0.0,0.0,1.0));
#588=DIRECTION('',(1.0,0.0,0.0));
#589=DIRECTION('',(0.0,0.0,-1.0));
#590=DIRECTION('',(0.0,1.0,0.0));
#591=DIRECTION('',(0.0,0.0,-1.0));
#592=DIRECTION('',(0.0,1.0,0.0));
#593=CARTESIAN_POINT('',(216.2,156.5,-1000.0));
#594=DIRECTION('',(0.0,0.0,1.0));
#595=DIRECTION('',(1.0,0.0,0.0));
#596=DIRECTION('',(0.0,0.0,-1.0));
#597=CARTESIAN_POINT('',(216.2,156.5,0.0));
#598=DIRECTION('',(0.0,0.0,1.0));
#599=DIRECTION('',(1.0,0.0,0.0));
#600=DIRECTION('',(-1.0,-0.0,-0.0));
#601=DIRECTION('',(0.0,0.0,-1.0));
#602=DIRECTION('',(1.0,0.0,0.0));
#603=CARTESIAN_POINT('',(6.19999999999999,156.5,-1000.0));
#604=DIRECTION('',(0.0,0.0,1.0));
#605=DIRECTION('',(1.0,0.0,0.0));
#606=DIRECTION('',(0.0,0.0,-1.0));
#607=CARTESIAN_POINT('',(6.19999999999999,156.5,0.0));
#608=DIRECTION('',(0.0,0.0,1.0));
#609=DIRECTION('',(1.0,0.0,0.0));
#610=DIRECTION('',(-0.0,-1.0,-0.0));
#611=DIRECTION('',(0.0,0.0,-1.0));
#612=DIRECTION('',(0.0,1.0,0.0));
#613=CARTESIAN_POINT('',(6.19999999999999,112.5,-1000.0));
#614=DIRECTION('',(0.0,0.0,1.0));
#615=DIRECTION('',(1.0,0.0,0.0));
#616=DIRECTION('',(0.0,0.0,-1.0));
#617=CARTESIAN_POINT('',(6.19999999999999,112.5,0.0));
#618=DIRECTION('',(0.0,0.0,1.0));
#619=DIRECTION('',(1.0,0.0,0.0));
#620=DIRECTION('',(1.0,0.0,0.0));
#621=DIRECTION('',(1.0,0.0,0.0));
#622=CARTESIAN_POINT('',(216.2,112.5,-1000.0));
#623=DIRECTION('',(0.0,0.0,-1.0));
#624=DIRECTION('',(1.0,0.0,0.0));
#625=DIRECTION('',(0.0,0.0,-1.0));
#626=CARTESIAN_POINT('',(216.2,112.5,0.0));
#627=DIRECTION('',(0.0,0.0,1.0));
#628=DIRECTION('',(1.0,0.0,0.0));
#629=DIRECTION('',(0.0,0.0,-1.0));
#630=DIRECTION('',(-1.0,-0.0,-0.0));
#631=DIRECTION('',(0.0,0.0,-1.0));
#632=DIRECTION('',(1.0,0.0,0.0));
#633=CARTESIAN_POINT('',(6.19999999999999,112.5,-1000.0));
#634=DIRECTION('',(0.0,0.0,-1.0));
#635=DIRECTION('',(1.0,0.0,0.0));
#636=DIRECTION('',(0.0,0.0,-1.0));
#637=CARTESIAN_POINT('',(6.19999999999999,112.5,0.0));
#638=DIRECTION('',(0.0,0.0,1.0));
#639=DIRECTION('',(1.0,0.0,0.0));
#640=DIRECTION('',(0.0,1.0,0.0));
#641=DIRECTION('',(0.0,0.0,-1.0));
#642=DIRECTION('',(0.0,1.0,0.0));
#643=CARTESIAN_POINT('',(6.19999999999999,156.5,-1000.0));
#644=DIRECTION('',(0.0,0.0,-1.0));
#645=DIRECTION('',(1.0,0.0,0.0));
#646=DIRECTION('',(0.0,0.0,-1.0));
#647=CARTESIAN_POINT('',(6.19999999999999,156.5,0.0));
#648=DIRECTION('',(0.0,0.0,1.0));
#649=DIRECTION('',(1.0,0.0,0.0));
#650=DIRECTION('',(1.0,0.0,0.0));
#651=DIRECTION('',(0.0,0.0,-1.0));
#652=DIRECTION('',(1.0,0.0,0.0));
#653=CARTESIAN_POINT('',(216.2,156.5,-1000.0));
#654=DIRECTION('',(0.0,0.0,-1.0));
#655=DIRECTION('',(1.0,0.0,0.0));
#656=DIRECTION('',(0.0,0.0,-1.0));
#657=CARTESIAN_POINT('',(216.2,156.5,0.0));
#658=DIRECTION('',(0.0,0.0,1.0));
#659=DIRECTION('',(1.0,0.0,0.0));
#660=DIRECTION('',(-0.0,-1.0,-0.0));
#661=DIRECTION('',(0.0,1.0,0.0));
ENDSEC;
END-ISO-10303-21;
