ISO-10303-21;
HEADER;
FILE_DESCRIPTION(('STEP AP214'),'1');
FILE_NAME('4033025_V Flachkanalhalterung 125.STP','2019-12-18T08:23:23',(' '),(' '),'Spatial InterOp 3D',' ',' ');
FILE_SCHEMA(('AUTOMOTIVE_DESIGN { 1 0 10303 214 1 1 1 1 }'));
ENDSEC;
DATA;
#1=MECHANICAL_DESIGN_GEOMETRIC_PRESENTATION_REPRESENTATION(' ',(#10),#6);
#2=PRODUCT_DEFINITION_CONTEXT('',#11,'design');
#3=APPLICATION_PROTOCOL_DEFINITION('INTERNATIONAL STANDARD','automotive_design',1994,#11);
#4=PRODUCT_CATEGORY_RELATIONSHIP('NONE','NONE',#12,#13);
#5=SHAPE_DEFINITION_REPRESENTATION(#14,#15);
#6= (GEOMETRIC_REPRESENTATION_CONTEXT(3)GLOBAL_UNCERTAINTY_ASSIGNED_CONTEXT((#18))GLOBAL_UNIT_ASSIGNED_CONTEXT((#20,#21,#22))REPRESENTATION_CONTEXT('NONE','WORKSPACE'));
#10=STYLED_ITEM('',(#24),#25);
#11=APPLICATION_CONTEXT(' ');
#12=PRODUCT_CATEGORY('part','NONE');
#13=PRODUCT_RELATED_PRODUCT_CATEGORY('detail',' ',(#26));
#14=PRODUCT_DEFINITION_SHAPE('NONE','NONE',#27);
#15=ADVANCED_BREP_SHAPE_REPRESENTATION('gerades Prisma',(#25,#28),#6);
#18=UNCERTAINTY_MEASURE_WITH_UNIT(LENGTH_MEASURE(1.0E-06),#20,'','');
#20= (CONVERSION_BASED_UNIT('MILLIMETRE',#31)LENGTH_UNIT()NAMED_UNIT(#34));
#21= (NAMED_UNIT(#36)PLANE_ANGLE_UNIT()SI_UNIT($,.RADIAN.));
#22= (NAMED_UNIT(#36)SOLID_ANGLE_UNIT()SI_UNIT($,.STERADIAN.));
#24=PRESENTATION_STYLE_ASSIGNMENT((#42));
#25=MANIFOLD_SOLID_BREP('gerades Prisma',#43);
#26=PRODUCT('gerades Prisma','','PART--DESC',(#44));
#27=PRODUCT_DEFINITION('','NONE',#45,#2);
#28=AXIS2_PLACEMENT_3D('',#46,#47,#48);
#31=LENGTH_MEASURE_WITH_UNIT(LENGTH_MEASURE(1.0),#49);
#34=DIMENSIONAL_EXPONENTS(1.0,0.0,0.0,0.0,0.0,0.0,0.0);
#36=DIMENSIONAL_EXPONENTS(0.0,0.0,0.0,0.0,0.0,0.0,0.0);
#42=SURFACE_STYLE_USAGE(.BOTH.,#50);
#43=CLOSED_SHELL('',(#51,#52,#53,#54,#55,#56,#57,#58,#59,#60,#61,#62,#63,#64,#65,#66,#67,#68,#69,#70,#71,#72));
#44=PRODUCT_CONTEXT('',#11,'mechanical');
#45=PRODUCT_DEFINITION_FORMATION_WITH_SPECIFIED_SOURCE(' ','NONE',#26,.NOT_KNOWN.);
#46=CARTESIAN_POINT('',(0.0,0.0,0.0));
#47=DIRECTION('',(0.0,0.0,1.0));
#48=DIRECTION('',(1.0,0.0,0.0));
#49= (NAMED_UNIT(#34)LENGTH_UNIT()SI_UNIT(.MILLI.,.METRE.));
#50=SURFACE_SIDE_STYLE('',(#74));
#51=ADVANCED_FACE('',(#75),#76,.F.);
#52=ADVANCED_FACE('',(#77),#78,.F.);
#53=ADVANCED_FACE('',(#79),#80,.F.);
#54=ADVANCED_FACE('',(#81),#82,.F.);
#55=ADVANCED_FACE('',(#83),#84,.T.);
#56=ADVANCED_FACE('',(#85),#86,.T.);
#57=ADVANCED_FACE('',(#87),#88,.T.);
#58=ADVANCED_FACE('',(#89),#90,.T.);
#59=ADVANCED_FACE('',(#91),#92,.T.);
#60=ADVANCED_FACE('',(#93,#94),#95,.T.);
#61=ADVANCED_FACE('',(#96),#97,.T.);
#62=ADVANCED_FACE('',(#98,#99),#100,.T.);
#63=ADVANCED_FACE('',(#101),#102,.T.);
#64=ADVANCED_FACE('',(#103),#104,.F.);
#65=ADVANCED_FACE('',(#105),#106,.T.);
#66=ADVANCED_FACE('',(#107),#108,.F.);
#67=ADVANCED_FACE('',(#109),#110,.T.);
#68=ADVANCED_FACE('',(#111,#112),#113,.T.);
#69=ADVANCED_FACE('',(#114),#115,.T.);
#70=ADVANCED_FACE('',(#116,#117),#118,.T.);
#71=ADVANCED_FACE('',(#119),#120,.F.);
#72=ADVANCED_FACE('',(#121),#122,.T.);
#74=SURFACE_STYLE_FILL_AREA(#123);
#75=FACE_OUTER_BOUND('',#124,.T.);
#76=CYLINDRICAL_SURFACE('',#125,2.5);
#77=FACE_OUTER_BOUND('',#126,.T.);
#78=CYLINDRICAL_SURFACE('',#127,2.5);
#79=FACE_OUTER_BOUND('',#128,.T.);
#80=CYLINDRICAL_SURFACE('',#129,2.5);
#81=FACE_OUTER_BOUND('',#130,.T.);
#82=CYLINDRICAL_SURFACE('',#131,2.5);
#83=FACE_OUTER_BOUND('',#132,.T.);
#84=PLANE('',#133);
#85=FACE_OUTER_BOUND('',#134,.T.);
#86=CYLINDRICAL_SURFACE('',#135,20.0);
#87=FACE_OUTER_BOUND('',#136,.T.);
#88=PLANE('',#137);
#89=FACE_OUTER_BOUND('',#138,.T.);
#90=CYLINDRICAL_SURFACE('',#139,20.0);
#91=FACE_OUTER_BOUND('',#140,.T.);
#92=PLANE('',#141);
#93=FACE_BOUND('',#142,.T.);
#94=FACE_OUTER_BOUND('',#143,.T.);
#95=PLANE('',#144);
#96=FACE_OUTER_BOUND('',#145,.T.);
#97=PLANE('',#146);
#98=FACE_BOUND('',#147,.T.);
#99=FACE_OUTER_BOUND('',#148,.T.);
#100=PLANE('',#149);
#101=FACE_OUTER_BOUND('',#150,.T.);
#102=PLANE('',#151);
#103=FACE_OUTER_BOUND('',#152,.T.);
#104=CYLINDRICAL_SURFACE('',#153,19.2);
#105=FACE_OUTER_BOUND('',#154,.T.);
#106=PLANE('',#155);
#107=FACE_OUTER_BOUND('',#156,.T.);
#108=CYLINDRICAL_SURFACE('',#157,19.2);
#109=FACE_OUTER_BOUND('',#158,.T.);
#110=PLANE('',#159);
#111=FACE_BOUND('',#160,.T.);
#112=FACE_OUTER_BOUND('',#161,.T.);
#113=PLANE('',#162);
#114=FACE_OUTER_BOUND('',#163,.T.);
#115=PLANE('',#164);
#116=FACE_BOUND('',#165,.T.);
#117=FACE_OUTER_BOUND('',#166,.T.);
#118=PLANE('',#167);
#119=FACE_OUTER_BOUND('',#168,.T.);
#120=PLANE('',#169);
#121=FACE_OUTER_BOUND('',#170,.T.);
#122=PLANE('',#171);
#123=FILL_AREA_STYLE('',(#172));
#124=EDGE_LOOP('',(#173,#174,#175,#176));
#125=AXIS2_PLACEMENT_3D('',#177,#178,#179);
#126=EDGE_LOOP('',(#180,#181,#182,#183));
#127=AXIS2_PLACEMENT_3D('',#184,#185,#186);
#128=EDGE_LOOP('',(#187,#188,#189,#190));
#129=AXIS2_PLACEMENT_3D('',#191,#192,#193);
#130=EDGE_LOOP('',(#194,#195,#196,#197));
#131=AXIS2_PLACEMENT_3D('',#198,#199,#200);
#132=EDGE_LOOP('',(#201,#202,#203,#204));
#133=AXIS2_PLACEMENT_3D('',#205,#206,#207);
#134=EDGE_LOOP('',(#208,#209,#210,#211));
#135=AXIS2_PLACEMENT_3D('',#212,#213,#214);
#136=EDGE_LOOP('',(#215,#216,#217,#218));
#137=AXIS2_PLACEMENT_3D('',#219,#220,#221);
#138=EDGE_LOOP('',(#222,#223,#224,#225));
#139=AXIS2_PLACEMENT_3D('',#226,#227,#228);
#140=EDGE_LOOP('',(#229,#230,#231,#232));
#141=AXIS2_PLACEMENT_3D('',#233,#234,#235);
#142=EDGE_LOOP('',(#236,#237));
#143=EDGE_LOOP('',(#238,#239,#240,#241));
#144=AXIS2_PLACEMENT_3D('',#242,#243,#244);
#145=EDGE_LOOP('',(#245,#246,#247,#248));
#146=AXIS2_PLACEMENT_3D('',#249,#250,#251);
#147=EDGE_LOOP('',(#252,#253));
#148=EDGE_LOOP('',(#254,#255,#256,#257));
#149=AXIS2_PLACEMENT_3D('',#258,#259,#260);
#150=EDGE_LOOP('',(#261,#262,#263,#264));
#151=AXIS2_PLACEMENT_3D('',#265,#266,#267);
#152=EDGE_LOOP('',(#268,#269,#270,#271));
#153=AXIS2_PLACEMENT_3D('',#272,#273,#274);
#154=EDGE_LOOP('',(#275,#276,#277,#278));
#155=AXIS2_PLACEMENT_3D('',#279,#280,#281);
#156=EDGE_LOOP('',(#282,#283,#284,#285));
#157=AXIS2_PLACEMENT_3D('',#286,#287,#288);
#158=EDGE_LOOP('',(#289,#290,#291,#292));
#159=AXIS2_PLACEMENT_3D('',#293,#294,#295);
#160=EDGE_LOOP('',(#296,#297));
#161=EDGE_LOOP('',(#298,#299,#300,#301));
#162=AXIS2_PLACEMENT_3D('',#302,#303,#304);
#163=EDGE_LOOP('',(#305,#306,#307,#308));
#164=AXIS2_PLACEMENT_3D('',#309,#310,#311);
#165=EDGE_LOOP('',(#312,#313));
#166=EDGE_LOOP('',(#314,#315,#316,#317));
#167=AXIS2_PLACEMENT_3D('',#318,#319,#320);
#168=EDGE_LOOP('',(#321,#322,#323,#324,#325,#326,#327,#328,#329,#330,#331,#332,#333,#334,#335,#336));
#169=AXIS2_PLACEMENT_3D('',#337,#338,#339);
#170=EDGE_LOOP('',(#340,#341,#342,#343,#344,#345,#346,#347,#348,#349,#350,#351,#352,#353,#354,#355));
#171=AXIS2_PLACEMENT_3D('',#356,#357,#358);
#172=FILL_AREA_STYLE_COLOUR('',#359);
#173=ORIENTED_EDGE('',*,*,#360,.F.);
#174=ORIENTED_EDGE('',*,*,#361,.T.);
#175=ORIENTED_EDGE('',*,*,#362,.F.);
#176=ORIENTED_EDGE('',*,*,#363,.T.);
#177=CARTESIAN_POINT('',(95.0,188.2,-10.0));
#178=DIRECTION('',(-0.0,1.0,0.0));
#179=DIRECTION('',(1.0,0.0,0.0));
#180=ORIENTED_EDGE('',*,*,#364,.F.);
#181=ORIENTED_EDGE('',*,*,#365,.T.);
#182=ORIENTED_EDGE('',*,*,#366,.F.);
#183=ORIENTED_EDGE('',*,*,#367,.T.);
#184=CARTESIAN_POINT('',(285.6,188.2,-10.0));
#185=DIRECTION('',(-0.0,1.0,0.0));
#186=DIRECTION('',(1.0,0.0,0.0));
#187=ORIENTED_EDGE('',*,*,#364,.T.);
#188=ORIENTED_EDGE('',*,*,#368,.T.);
#189=ORIENTED_EDGE('',*,*,#366,.T.);
#190=ORIENTED_EDGE('',*,*,#369,.T.);
#191=CARTESIAN_POINT('',(285.6,188.2,-10.0));
#192=DIRECTION('',(-0.0,1.0,0.0));
#193=DIRECTION('',(1.0,0.0,0.0));
#194=ORIENTED_EDGE('',*,*,#360,.T.);
#195=ORIENTED_EDGE('',*,*,#370,.T.);
#196=ORIENTED_EDGE('',*,*,#362,.T.);
#197=ORIENTED_EDGE('',*,*,#371,.T.);
#198=CARTESIAN_POINT('',(95.0,188.2,-10.0));
#199=DIRECTION('',(-0.0,1.0,0.0));
#200=DIRECTION('',(1.0,0.0,0.0));
#201=ORIENTED_EDGE('',*,*,#372,.T.);
#202=ORIENTED_EDGE('',*,*,#373,.F.);
#203=ORIENTED_EDGE('',*,*,#374,.F.);
#204=ORIENTED_EDGE('',*,*,#375,.T.);
#205=CARTESIAN_POINT('',(105.0,151.6,0.0));
#206=DIRECTION('',(-1.0,0.0,0.0));
#207=DIRECTION('',(0.0,1.0,0.0));
#208=ORIENTED_EDGE('',*,*,#376,.T.);
#209=ORIENTED_EDGE('',*,*,#377,.F.);
#210=ORIENTED_EDGE('',*,*,#378,.F.);
#211=ORIENTED_EDGE('',*,*,#373,.T.);
#212=CARTESIAN_POINT('',(125.0,127.0,0.0));
#213=DIRECTION('',(0.0,0.0,-1.0));
#214=DIRECTION('',(1.0,0.0,0.0));
#215=ORIENTED_EDGE('',*,*,#379,.T.);
#216=ORIENTED_EDGE('',*,*,#380,.F.);
#217=ORIENTED_EDGE('',*,*,#381,.F.);
#218=ORIENTED_EDGE('',*,*,#377,.T.);
#219=CARTESIAN_POINT('',(216.8,107.0,0.0));
#220=DIRECTION('',(0.0,-1.0,-0.0));
#221=DIRECTION('',(-1.0,0.0,-0.0));
#222=ORIENTED_EDGE('',*,*,#382,.T.);
#223=ORIENTED_EDGE('',*,*,#383,.F.);
#224=ORIENTED_EDGE('',*,*,#384,.F.);
#225=ORIENTED_EDGE('',*,*,#380,.T.);
#226=CARTESIAN_POINT('',(255.6,127.0,0.0));
#227=DIRECTION('',(0.0,0.0,-1.0));
#228=DIRECTION('',(1.0,0.0,0.0));
#229=ORIENTED_EDGE('',*,*,#385,.T.);
#230=ORIENTED_EDGE('',*,*,#386,.F.);
#231=ORIENTED_EDGE('',*,*,#387,.F.);
#232=ORIENTED_EDGE('',*,*,#383,.T.);
#233=CARTESIAN_POINT('',(275.6,151.6,0.0));
#234=DIRECTION('',(1.0,0.0,0.0));
#235=DIRECTION('',(0.0,-1.0,0.0));
#236=ORIENTED_EDGE('',*,*,#365,.F.);
#237=ORIENTED_EDGE('',*,*,#369,.F.);
#238=ORIENTED_EDGE('',*,*,#388,.T.);
#239=ORIENTED_EDGE('',*,*,#389,.F.);
#240=ORIENTED_EDGE('',*,*,#390,.T.);
#241=ORIENTED_EDGE('',*,*,#386,.T.);
#242=CARTESIAN_POINT('',(338.6,188.2,0.0));
#243=DIRECTION('',(-0.0,-1.0,-0.0));
#244=DIRECTION('',(-1.0,0.0,0.0));
#245=ORIENTED_EDGE('',*,*,#391,.T.);
#246=ORIENTED_EDGE('',*,*,#392,.F.);
#247=ORIENTED_EDGE('',*,*,#393,.F.);
#248=ORIENTED_EDGE('',*,*,#389,.T.);
#249=CARTESIAN_POINT('',(295.6,188.6,0.0));
#250=DIRECTION('',(1.0,0.0,0.0));
#251=DIRECTION('',(0.0,-1.0,0.0));
#252=ORIENTED_EDGE('',*,*,#368,.F.);
#253=ORIENTED_EDGE('',*,*,#367,.F.);
#254=ORIENTED_EDGE('',*,*,#394,.T.);
#255=ORIENTED_EDGE('',*,*,#395,.F.);
#256=ORIENTED_EDGE('',*,*,#396,.F.);
#257=ORIENTED_EDGE('',*,*,#392,.T.);
#258=CARTESIAN_POINT('',(338.2,189.0,0.0));
#259=DIRECTION('',(0.0,1.0,0.0));
#260=DIRECTION('',(1.0,-0.0,-0.0));
#261=ORIENTED_EDGE('',*,*,#397,.T.);
#262=ORIENTED_EDGE('',*,*,#398,.F.);
#263=ORIENTED_EDGE('',*,*,#399,.T.);
#264=ORIENTED_EDGE('',*,*,#395,.T.);
#265=CARTESIAN_POINT('',(274.8,152.0,0.0));
#266=DIRECTION('',(-1.0,0.0,0.0));
#267=DIRECTION('',(0.0,1.0,0.0));
#268=ORIENTED_EDGE('',*,*,#400,.T.);
#269=ORIENTED_EDGE('',*,*,#401,.F.);
#270=ORIENTED_EDGE('',*,*,#402,.T.);
#271=ORIENTED_EDGE('',*,*,#398,.T.);
#272=CARTESIAN_POINT('',(255.6,127.0,0.0));
#273=DIRECTION('',(0.0,0.0,-1.0));
#274=DIRECTION('',(1.0,0.0,0.0));
#275=ORIENTED_EDGE('',*,*,#403,.T.);
#276=ORIENTED_EDGE('',*,*,#404,.F.);
#277=ORIENTED_EDGE('',*,*,#405,.T.);
#278=ORIENTED_EDGE('',*,*,#401,.T.);
#279=CARTESIAN_POINT('',(216.8,107.8,0.0));
#280=DIRECTION('',(-0.0,1.0,0.0));
#281=DIRECTION('',(1.0,0.0,0.0));
#282=ORIENTED_EDGE('',*,*,#406,.T.);
#283=ORIENTED_EDGE('',*,*,#407,.F.);
#284=ORIENTED_EDGE('',*,*,#408,.T.);
#285=ORIENTED_EDGE('',*,*,#404,.T.);
#286=CARTESIAN_POINT('',(125.0,127.0,0.0));
#287=DIRECTION('',(0.0,0.0,-1.0));
#288=DIRECTION('',(1.0,0.0,0.0));
#289=ORIENTED_EDGE('',*,*,#409,.T.);
#290=ORIENTED_EDGE('',*,*,#410,.F.);
#291=ORIENTED_EDGE('',*,*,#411,.T.);
#292=ORIENTED_EDGE('',*,*,#407,.T.);
#293=CARTESIAN_POINT('',(105.8,152.0,0.0));
#294=DIRECTION('',(1.0,0.0,0.0));
#295=DIRECTION('',(0.0,-1.0,0.0));
#296=ORIENTED_EDGE('',*,*,#370,.F.);
#297=ORIENTED_EDGE('',*,*,#363,.F.);
#298=ORIENTED_EDGE('',*,*,#412,.T.);
#299=ORIENTED_EDGE('',*,*,#413,.F.);
#300=ORIENTED_EDGE('',*,*,#414,.F.);
#301=ORIENTED_EDGE('',*,*,#410,.T.);
#302=CARTESIAN_POINT('',(95.4,189.0,0.0));
#303=DIRECTION('',(0.0,1.0,0.0));
#304=DIRECTION('',(1.0,-0.0,-0.0));
#305=ORIENTED_EDGE('',*,*,#415,.T.);
#306=ORIENTED_EDGE('',*,*,#416,.F.);
#307=ORIENTED_EDGE('',*,*,#417,.F.);
#308=ORIENTED_EDGE('',*,*,#413,.T.);
#309=CARTESIAN_POINT('',(85.0,188.6,0.0));
#310=DIRECTION('',(-1.0,0.0,0.0));
#311=DIRECTION('',(0.0,1.0,0.0));
#312=ORIENTED_EDGE('',*,*,#361,.F.);
#313=ORIENTED_EDGE('',*,*,#371,.F.);
#314=ORIENTED_EDGE('',*,*,#418,.T.);
#315=ORIENTED_EDGE('',*,*,#375,.F.);
#316=ORIENTED_EDGE('',*,*,#419,.T.);
#317=ORIENTED_EDGE('',*,*,#416,.T.);
#318=CARTESIAN_POINT('',(95.0,188.2,0.0));
#319=DIRECTION('',(-0.0,-1.0,-0.0));
#320=DIRECTION('',(-1.0,0.0,0.0));
#321=ORIENTED_EDGE('',*,*,#372,.F.);
#322=ORIENTED_EDGE('',*,*,#418,.F.);
#323=ORIENTED_EDGE('',*,*,#415,.F.);
#324=ORIENTED_EDGE('',*,*,#412,.F.);
#325=ORIENTED_EDGE('',*,*,#409,.F.);
#326=ORIENTED_EDGE('',*,*,#406,.F.);
#327=ORIENTED_EDGE('',*,*,#403,.F.);
#328=ORIENTED_EDGE('',*,*,#400,.F.);
#329=ORIENTED_EDGE('',*,*,#397,.F.);
#330=ORIENTED_EDGE('',*,*,#394,.F.);
#331=ORIENTED_EDGE('',*,*,#391,.F.);
#332=ORIENTED_EDGE('',*,*,#388,.F.);
#333=ORIENTED_EDGE('',*,*,#385,.F.);
#334=ORIENTED_EDGE('',*,*,#382,.F.);
#335=ORIENTED_EDGE('',*,*,#379,.F.);
#336=ORIENTED_EDGE('',*,*,#376,.F.);
#337=CARTESIAN_POINT('',(216.8,124.513061598909,-20.0));
#338=DIRECTION('',(0.0,0.0,1.0));
#339=DIRECTION('',(1.0,0.0,0.0));
#340=ORIENTED_EDGE('',*,*,#419,.F.);
#341=ORIENTED_EDGE('',*,*,#374,.T.);
#342=ORIENTED_EDGE('',*,*,#378,.T.);
#343=ORIENTED_EDGE('',*,*,#381,.T.);
#344=ORIENTED_EDGE('',*,*,#384,.T.);
#345=ORIENTED_EDGE('',*,*,#387,.T.);
#346=ORIENTED_EDGE('',*,*,#390,.F.);
#347=ORIENTED_EDGE('',*,*,#393,.T.);
#348=ORIENTED_EDGE('',*,*,#396,.T.);
#349=ORIENTED_EDGE('',*,*,#399,.F.);
#350=ORIENTED_EDGE('',*,*,#402,.F.);
#351=ORIENTED_EDGE('',*,*,#405,.F.);
#352=ORIENTED_EDGE('',*,*,#408,.F.);
#353=ORIENTED_EDGE('',*,*,#411,.F.);
#354=ORIENTED_EDGE('',*,*,#414,.T.);
#355=ORIENTED_EDGE('',*,*,#417,.T.);
#356=CARTESIAN_POINT('',(216.8,124.513061598909,0.0));
#357=DIRECTION('',(0.0,0.0,1.0));
#358=DIRECTION('',(1.0,0.0,0.0));
#359=COLOUR_RGB('',0.0,0.0,0.0);
#360=EDGE_CURVE('',#420,#421,#422,.T.);
#361=EDGE_CURVE('',#420,#423,#424,.T.);
#362=EDGE_CURVE('',#425,#423,#426,.T.);
#363=EDGE_CURVE('',#425,#421,#427,.T.);
#364=EDGE_CURVE('',#428,#429,#430,.T.);
#365=EDGE_CURVE('',#428,#431,#432,.T.);
#366=EDGE_CURVE('',#433,#431,#434,.T.);
#367=EDGE_CURVE('',#433,#429,#435,.T.);
#368=EDGE_CURVE('',#429,#433,#436,.T.);
#369=EDGE_CURVE('',#431,#428,#437,.T.);
#370=EDGE_CURVE('',#421,#425,#438,.T.);
#371=EDGE_CURVE('',#423,#420,#439,.T.);
#372=EDGE_CURVE('',#440,#441,#442,.T.);
#373=EDGE_CURVE('',#443,#441,#444,.T.);
#374=EDGE_CURVE('',#445,#443,#446,.T.);
#375=EDGE_CURVE('',#445,#440,#447,.T.);
#376=EDGE_CURVE('',#441,#448,#449,.F.);
#377=EDGE_CURVE('',#450,#448,#451,.T.);
#378=EDGE_CURVE('',#443,#450,#452,.F.);
#379=EDGE_CURVE('',#448,#453,#454,.F.);
#380=EDGE_CURVE('',#455,#453,#456,.T.);
#381=EDGE_CURVE('',#450,#455,#457,.F.);
#382=EDGE_CURVE('',#453,#458,#459,.F.);
#383=EDGE_CURVE('',#460,#458,#461,.T.);
#384=EDGE_CURVE('',#455,#460,#462,.F.);
#385=EDGE_CURVE('',#458,#463,#464,.F.);
#386=EDGE_CURVE('',#465,#463,#466,.T.);
#387=EDGE_CURVE('',#460,#465,#467,.F.);
#388=EDGE_CURVE('',#463,#468,#469,.F.);
#389=EDGE_CURVE('',#470,#468,#471,.T.);
#390=EDGE_CURVE('',#470,#465,#472,.T.);
#391=EDGE_CURVE('',#468,#473,#474,.F.);
#392=EDGE_CURVE('',#475,#473,#476,.T.);
#393=EDGE_CURVE('',#470,#475,#477,.F.);
#394=EDGE_CURVE('',#473,#478,#479,.F.);
#395=EDGE_CURVE('',#480,#478,#481,.T.);
#396=EDGE_CURVE('',#475,#480,#482,.F.);
#397=EDGE_CURVE('',#478,#483,#484,.F.);
#398=EDGE_CURVE('',#485,#483,#486,.T.);
#399=EDGE_CURVE('',#485,#480,#487,.T.);
#400=EDGE_CURVE('',#483,#488,#489,.F.);
#401=EDGE_CURVE('',#490,#488,#491,.T.);
#402=EDGE_CURVE('',#490,#485,#492,.T.);
#403=EDGE_CURVE('',#488,#493,#494,.F.);
#404=EDGE_CURVE('',#495,#493,#496,.T.);
#405=EDGE_CURVE('',#495,#490,#497,.T.);
#406=EDGE_CURVE('',#493,#498,#499,.F.);
#407=EDGE_CURVE('',#500,#498,#501,.T.);
#408=EDGE_CURVE('',#500,#495,#502,.T.);
#409=EDGE_CURVE('',#498,#503,#504,.T.);
#410=EDGE_CURVE('',#505,#503,#506,.T.);
#411=EDGE_CURVE('',#505,#500,#507,.T.);
#412=EDGE_CURVE('',#503,#508,#509,.T.);
#413=EDGE_CURVE('',#510,#508,#511,.T.);
#414=EDGE_CURVE('',#505,#510,#512,.T.);
#415=EDGE_CURVE('',#508,#513,#514,.T.);
#416=EDGE_CURVE('',#515,#513,#516,.T.);
#417=EDGE_CURVE('',#510,#515,#517,.T.);
#418=EDGE_CURVE('',#513,#440,#518,.T.);
#419=EDGE_CURVE('',#445,#515,#519,.T.);
#420=VERTEX_POINT('',#520);
#421=VERTEX_POINT('',#521);
#422=LINE('',#522,#523);
#423=VERTEX_POINT('',#524);
#424=CIRCLE('',#525,2.5);
#425=VERTEX_POINT('',#526);
#426=LINE('',#527,#528);
#427=CIRCLE('',#529,2.5);
#428=VERTEX_POINT('',#530);
#429=VERTEX_POINT('',#531);
#430=LINE('',#532,#533);
#431=VERTEX_POINT('',#534);
#432=CIRCLE('',#535,2.5);
#433=VERTEX_POINT('',#536);
#434=LINE('',#537,#538);
#435=CIRCLE('',#539,2.5);
#436=CIRCLE('',#540,2.5);
#437=CIRCLE('',#541,2.5);
#438=CIRCLE('',#542,2.5);
#439=CIRCLE('',#543,2.5);
#440=VERTEX_POINT('',#544);
#441=VERTEX_POINT('',#545);
#442=LINE('',#546,#547);
#443=VERTEX_POINT('',#548);
#444=LINE('',#549,#550);
#445=VERTEX_POINT('',#551);
#446=LINE('',#552,#553);
#447=LINE('',#554,#555);
#448=VERTEX_POINT('',#556);
#449=CIRCLE('',#557,20.0);
#450=VERTEX_POINT('',#558);
#451=LINE('',#559,#560);
#452=CIRCLE('',#561,20.0);
#453=VERTEX_POINT('',#562);
#454=LINE('',#563,#564);
#455=VERTEX_POINT('',#565);
#456=LINE('',#566,#567);
#457=LINE('',#568,#569);
#458=VERTEX_POINT('',#570);
#459=CIRCLE('',#571,20.0);
#460=VERTEX_POINT('',#572);
#461=LINE('',#573,#574);
#462=CIRCLE('',#575,20.0);
#463=VERTEX_POINT('',#576);
#464=LINE('',#577,#578);
#465=VERTEX_POINT('',#579);
#466=LINE('',#580,#581);
#467=LINE('',#582,#583);
#468=VERTEX_POINT('',#584);
#469=LINE('',#585,#586);
#470=VERTEX_POINT('',#587);
#471=LINE('',#588,#589);
#472=LINE('',#590,#591);
#473=VERTEX_POINT('',#592);
#474=LINE('',#593,#594);
#475=VERTEX_POINT('',#595);
#476=LINE('',#596,#597);
#477=LINE('',#598,#599);
#478=VERTEX_POINT('',#600);
#479=LINE('',#601,#602);
#480=VERTEX_POINT('',#603);
#481=LINE('',#604,#605);
#482=LINE('',#606,#607);
#483=VERTEX_POINT('',#608);
#484=LINE('',#609,#610);
#485=VERTEX_POINT('',#611);
#486=LINE('',#612,#613);
#487=LINE('',#614,#615);
#488=VERTEX_POINT('',#616);
#489=CIRCLE('',#617,19.2);
#490=VERTEX_POINT('',#618);
#491=LINE('',#619,#620);
#492=CIRCLE('',#621,19.2);
#493=VERTEX_POINT('',#622);
#494=LINE('',#623,#624);
#495=VERTEX_POINT('',#625);
#496=LINE('',#626,#627);
#497=LINE('',#628,#629);
#498=VERTEX_POINT('',#630);
#499=CIRCLE('',#631,19.2);
#500=VERTEX_POINT('',#632);
#501=LINE('',#633,#634);
#502=CIRCLE('',#635,19.2);
#503=VERTEX_POINT('',#636);
#504=LINE('',#637,#638);
#505=VERTEX_POINT('',#639);
#506=LINE('',#640,#641);
#507=LINE('',#642,#643);
#508=VERTEX_POINT('',#644);
#509=LINE('',#645,#646);
#510=VERTEX_POINT('',#647);
#511=LINE('',#648,#649);
#512=LINE('',#650,#651);
#513=VERTEX_POINT('',#652);
#514=LINE('',#653,#654);
#515=VERTEX_POINT('',#655);
#516=LINE('',#656,#657);
#517=LINE('',#658,#659);
#518=LINE('',#660,#661);
#519=LINE('',#662,#663);
#520=CARTESIAN_POINT('',(97.5,188.2,-10.0));
#521=CARTESIAN_POINT('',(97.5,189.0,-10.0));
#522=CARTESIAN_POINT('',(97.5,188.2,-10.0));
#523=VECTOR('',#664,1.0);
#524=CARTESIAN_POINT('',(92.5,188.2,-10.0));
#525=AXIS2_PLACEMENT_3D('',#665,#666,#667);
#526=CARTESIAN_POINT('',(92.5,189.0,-10.0));
#527=CARTESIAN_POINT('',(92.5,188.2,-10.0));
#528=VECTOR('',#668,1.0);
#529=AXIS2_PLACEMENT_3D('',#669,#670,#671);
#530=CARTESIAN_POINT('',(288.1,188.2,-10.0));
#531=CARTESIAN_POINT('',(288.1,189.0,-10.0));
#532=CARTESIAN_POINT('',(288.1,188.2,-10.0));
#533=VECTOR('',#672,1.0);
#534=CARTESIAN_POINT('',(283.1,188.2,-10.0));
#535=AXIS2_PLACEMENT_3D('',#673,#674,#675);
#536=CARTESIAN_POINT('',(283.1,189.0,-10.0));
#537=CARTESIAN_POINT('',(283.1,188.2,-10.0));
#538=VECTOR('',#676,1.0);
#539=AXIS2_PLACEMENT_3D('',#677,#678,#679);
#540=AXIS2_PLACEMENT_3D('',#680,#681,#682);
#541=AXIS2_PLACEMENT_3D('',#683,#684,#685);
#542=AXIS2_PLACEMENT_3D('',#686,#687,#688);
#543=AXIS2_PLACEMENT_3D('',#689,#690,#691);
#544=CARTESIAN_POINT('',(105.0,188.2,-20.0));
#545=CARTESIAN_POINT('',(105.0,127.0,-20.0));
#546=CARTESIAN_POINT('',(105.0,188.2,-20.0));
#547=VECTOR('',#692,1.0);
#548=CARTESIAN_POINT('',(105.0,127.0,0.0));
#549=CARTESIAN_POINT('',(105.0,127.0,0.0));
#550=VECTOR('',#693,1.0);
#551=CARTESIAN_POINT('',(105.0,188.2,0.0));
#552=CARTESIAN_POINT('',(105.0,188.2,0.0));
#553=VECTOR('',#694,1.0);
#554=CARTESIAN_POINT('',(105.0,188.2,0.0));
#555=VECTOR('',#695,1.0);
#556=CARTESIAN_POINT('',(125.0,107.0,-20.0));
#557=AXIS2_PLACEMENT_3D('',#696,#697,#698);
#558=CARTESIAN_POINT('',(125.0,107.0,0.0));
#559=CARTESIAN_POINT('',(125.0,107.0,0.0));
#560=VECTOR('',#699,1.0);
#561=AXIS2_PLACEMENT_3D('',#700,#701,#702);
#562=CARTESIAN_POINT('',(255.6,107.0,-20.0));
#563=CARTESIAN_POINT('',(216.8,107.0,-20.0));
#564=VECTOR('',#703,1.0);
#565=CARTESIAN_POINT('',(255.6,107.0,0.0));
#566=CARTESIAN_POINT('',(255.6,107.0,0.0));
#567=VECTOR('',#704,1.0);
#568=CARTESIAN_POINT('',(216.8,107.0,0.0));
#569=VECTOR('',#705,1.0);
#570=CARTESIAN_POINT('',(275.6,127.0,-20.0));
#571=AXIS2_PLACEMENT_3D('',#706,#707,#708);
#572=CARTESIAN_POINT('',(275.6,127.0,0.0));
#573=CARTESIAN_POINT('',(275.6,127.0,0.0));
#574=VECTOR('',#709,1.0);
#575=AXIS2_PLACEMENT_3D('',#710,#711,#712);
#576=CARTESIAN_POINT('',(275.6,188.2,-20.0));
#577=CARTESIAN_POINT('',(275.6,138.056530799455,-20.0));
#578=VECTOR('',#713,1.0);
#579=CARTESIAN_POINT('',(275.6,188.2,0.0));
#580=CARTESIAN_POINT('',(275.6,188.2,0.0));
#581=VECTOR('',#714,1.0);
#582=CARTESIAN_POINT('',(275.6,138.056530799455,0.0));
#583=VECTOR('',#715,1.0);
#584=CARTESIAN_POINT('',(295.6,188.2,-20.0));
#585=CARTESIAN_POINT('',(251.2,188.2,-20.0));
#586=VECTOR('',#716,1.0);
#587=CARTESIAN_POINT('',(295.6,188.2,0.0));
#588=CARTESIAN_POINT('',(295.6,188.2,0.0));
#589=VECTOR('',#717,1.0);
#590=CARTESIAN_POINT('',(251.2,188.2,0.0));
#591=VECTOR('',#718,1.0);
#592=CARTESIAN_POINT('',(295.6,189.0,-20.0));
#593=CARTESIAN_POINT('',(295.6,156.556530799455,-20.0));
#594=VECTOR('',#719,1.0);
#595=CARTESIAN_POINT('',(295.6,189.0,0.0));
#596=CARTESIAN_POINT('',(295.6,189.0,0.0));
#597=VECTOR('',#720,1.0);
#598=CARTESIAN_POINT('',(295.6,156.556530799455,0.0));
#599=VECTOR('',#721,1.0);
#600=CARTESIAN_POINT('',(274.8,189.0,-20.0));
#601=CARTESIAN_POINT('',(251.0,189.0,-20.0));
#602=VECTOR('',#722,1.0);
#603=CARTESIAN_POINT('',(274.8,189.0,0.0));
#604=CARTESIAN_POINT('',(274.8,189.0,0.0));
#605=VECTOR('',#723,1.0);
#606=CARTESIAN_POINT('',(251.0,189.0,0.0));
#607=VECTOR('',#724,1.0);
#608=CARTESIAN_POINT('',(274.8,127.0,-20.0));
#609=CARTESIAN_POINT('',(274.8,138.256530799455,-20.0));
#610=VECTOR('',#725,1.0);
#611=CARTESIAN_POINT('',(274.8,127.0,0.0));
#612=CARTESIAN_POINT('',(274.8,127.0,0.0));
#613=VECTOR('',#726,1.0);
#614=CARTESIAN_POINT('',(274.8,138.256530799455,0.0));
#615=VECTOR('',#727,1.0);
#616=CARTESIAN_POINT('',(255.6,107.8,-20.0));
#617=AXIS2_PLACEMENT_3D('',#728,#729,#730);
#618=CARTESIAN_POINT('',(255.6,107.8,0.0));
#619=CARTESIAN_POINT('',(255.6,107.8,0.0));
#620=VECTOR('',#731,1.0);
#621=AXIS2_PLACEMENT_3D('',#732,#733,#734);
#622=CARTESIAN_POINT('',(125.0,107.8,-20.0));
#623=CARTESIAN_POINT('',(216.8,107.8,-20.0));
#624=VECTOR('',#735,1.0);
#625=CARTESIAN_POINT('',(125.0,107.8,0.0));
#626=CARTESIAN_POINT('',(125.0,107.8,0.0));
#627=VECTOR('',#736,1.0);
#628=CARTESIAN_POINT('',(216.8,107.8,0.0));
#629=VECTOR('',#737,1.0);
#630=CARTESIAN_POINT('',(105.8,127.0,-20.0));
#631=AXIS2_PLACEMENT_3D('',#738,#739,#740);
#632=CARTESIAN_POINT('',(105.8,127.0,0.0));
#633=CARTESIAN_POINT('',(105.8,127.0,0.0));
#634=VECTOR('',#741,1.0);
#635=AXIS2_PLACEMENT_3D('',#742,#743,#744);
#636=CARTESIAN_POINT('',(105.8,189.0,-20.0));
#637=CARTESIAN_POINT('',(105.8,189.0,-20.0));
#638=VECTOR('',#745,1.0);
#639=CARTESIAN_POINT('',(105.8,189.0,0.0));
#640=CARTESIAN_POINT('',(105.8,189.0,0.0));
#641=VECTOR('',#746,1.0);
#642=CARTESIAN_POINT('',(105.8,189.0,0.0));
#643=VECTOR('',#747,1.0);
#644=CARTESIAN_POINT('',(85.0,189.0,-20.0));
#645=CARTESIAN_POINT('',(105.8,189.0,-20.0));
#646=VECTOR('',#748,1.0);
#647=CARTESIAN_POINT('',(85.0,189.0,0.0));
#648=CARTESIAN_POINT('',(85.0,189.0,0.0));
#649=VECTOR('',#749,1.0);
#650=CARTESIAN_POINT('',(105.8,189.0,0.0));
#651=VECTOR('',#750,1.0);
#652=CARTESIAN_POINT('',(85.0,188.2,-20.0));
#653=CARTESIAN_POINT('',(85.0,189.0,-20.0));
#654=VECTOR('',#751,1.0);
#655=CARTESIAN_POINT('',(85.0,188.2,0.0));
#656=CARTESIAN_POINT('',(85.0,188.2,0.0));
#657=VECTOR('',#752,1.0);
#658=CARTESIAN_POINT('',(85.0,189.0,0.0));
#659=VECTOR('',#753,1.0);
#660=CARTESIAN_POINT('',(105.0,188.2,-20.0));
#661=VECTOR('',#754,1.0);
#662=CARTESIAN_POINT('',(105.0,188.2,0.0));
#663=VECTOR('',#755,1.0);
#664=DIRECTION('',(-0.0,1.0,-0.0));
#665=CARTESIAN_POINT('',(95.0,188.2,-10.0));
#666=DIRECTION('',(0.0,-1.0,0.0));
#667=DIRECTION('',(1.0,0.0,0.0));
#668=DIRECTION('',(-0.0,-1.0,0.0));
#669=CARTESIAN_POINT('',(95.0,189.0,-10.0));
#670=DIRECTION('',(0.0,1.0,-0.0));
#671=DIRECTION('',(1.0,0.0,0.0));
#672=DIRECTION('',(-0.0,1.0,-0.0));
#673=CARTESIAN_POINT('',(285.6,188.2,-10.0));
#674=DIRECTION('',(0.0,-1.0,0.0));
#675=DIRECTION('',(1.0,0.0,0.0));
#676=DIRECTION('',(-0.0,-1.0,0.0));
#677=CARTESIAN_POINT('',(285.6,189.0,-10.0));
#678=DIRECTION('',(0.0,1.0,-0.0));
#679=DIRECTION('',(1.0,0.0,0.0));
#680=CARTESIAN_POINT('',(285.6,189.0,-10.0));
#681=DIRECTION('',(0.0,1.0,-0.0));
#682=DIRECTION('',(1.0,0.0,0.0));
#683=CARTESIAN_POINT('',(285.6,188.2,-10.0));
#684=DIRECTION('',(0.0,-1.0,0.0));
#685=DIRECTION('',(1.0,0.0,0.0));
#686=CARTESIAN_POINT('',(95.0,189.0,-10.0));
#687=DIRECTION('',(0.0,1.0,-0.0));
#688=DIRECTION('',(1.0,0.0,0.0));
#689=CARTESIAN_POINT('',(95.0,188.2,-10.0));
#690=DIRECTION('',(0.0,-1.0,0.0));
#691=DIRECTION('',(1.0,0.0,0.0));
#692=DIRECTION('',(0.0,-1.0,0.0));
#693=DIRECTION('',(0.0,0.0,-1.0));
#694=DIRECTION('',(0.0,-1.0,0.0));
#695=DIRECTION('',(0.0,0.0,-1.0));
#696=CARTESIAN_POINT('',(125.0,127.0,-20.0));
#697=DIRECTION('',(0.0,0.0,-1.0));
#698=DIRECTION('',(1.0,0.0,0.0));
#699=DIRECTION('',(0.0,0.0,-1.0));
#700=CARTESIAN_POINT('',(125.0,127.0,0.0));
#701=DIRECTION('',(0.0,0.0,-1.0));
#702=DIRECTION('',(1.0,0.0,0.0));
#703=DIRECTION('',(-1.0,0.0,0.0));
#704=DIRECTION('',(0.0,0.0,-1.0));
#705=DIRECTION('',(-1.0,0.0,0.0));
#706=CARTESIAN_POINT('',(255.6,127.0,-20.0));
#707=DIRECTION('',(0.0,0.0,-1.0));
#708=DIRECTION('',(1.0,0.0,0.0));
#709=DIRECTION('',(0.0,0.0,-1.0));
#710=CARTESIAN_POINT('',(255.6,127.0,0.0));
#711=DIRECTION('',(0.0,0.0,-1.0));
#712=DIRECTION('',(1.0,0.0,0.0));
#713=DIRECTION('',(0.0,-1.0,0.0));
#714=DIRECTION('',(0.0,0.0,-1.0));
#715=DIRECTION('',(0.0,-1.0,0.0));
#716=DIRECTION('',(-1.0,0.0,0.0));
#717=DIRECTION('',(0.0,0.0,-1.0));
#718=DIRECTION('',(-1.0,0.0,0.0));
#719=DIRECTION('',(0.0,-1.0,0.0));
#720=DIRECTION('',(0.0,0.0,-1.0));
#721=DIRECTION('',(0.0,-1.0,0.0));
#722=DIRECTION('',(1.0,0.0,0.0));
#723=DIRECTION('',(0.0,0.0,-1.0));
#724=DIRECTION('',(1.0,0.0,0.0));
#725=DIRECTION('',(0.0,1.0,-0.0));
#726=DIRECTION('',(0.0,0.0,-1.0));
#727=DIRECTION('',(0.0,1.0,-0.0));
#728=CARTESIAN_POINT('',(255.6,127.0,-20.0));
#729=DIRECTION('',(0.0,0.0,1.0));
#730=DIRECTION('',(1.0,0.0,0.0));
#731=DIRECTION('',(0.0,0.0,-1.0));
#732=CARTESIAN_POINT('',(255.6,127.0,0.0));
#733=DIRECTION('',(0.0,0.0,1.0));
#734=DIRECTION('',(1.0,0.0,0.0));
#735=DIRECTION('',(1.0,0.0,0.0));
#736=DIRECTION('',(0.0,0.0,-1.0));
#737=DIRECTION('',(1.0,0.0,0.0));
#738=CARTESIAN_POINT('',(125.0,127.0,-20.0));
#739=DIRECTION('',(0.0,0.0,1.0));
#740=DIRECTION('',(1.0,0.0,0.0));
#741=DIRECTION('',(0.0,0.0,-1.0));
#742=CARTESIAN_POINT('',(125.0,127.0,0.0));
#743=DIRECTION('',(0.0,0.0,1.0));
#744=DIRECTION('',(1.0,0.0,0.0));
#745=DIRECTION('',(0.0,1.0,0.0));
#746=DIRECTION('',(0.0,0.0,-1.0));
#747=DIRECTION('',(0.0,-1.0,0.0));
#748=DIRECTION('',(-1.0,0.0,0.0));
#749=DIRECTION('',(0.0,0.0,-1.0));
#750=DIRECTION('',(-1.0,0.0,0.0));
#751=DIRECTION('',(0.0,-1.0,0.0));
#752=DIRECTION('',(0.0,0.0,-1.0));
#753=DIRECTION('',(0.0,-1.0,0.0));
#754=DIRECTION('',(1.0,0.0,0.0));
#755=DIRECTION('',(-1.0,0.0,0.0));
#756=PRESENTATION_LAYER_ASSIGNMENT('9','',(#25));
ENDSEC;
END-ISO-10303-21;
