ISO-10303-21;
HEADER;
FILE_DESCRIPTION(('STEP AP203'),'1');
FILE_NAME('4033002_V MF-VRO 125 Flachkanalrohr.STP','2019-07-25T09:23:47',(' '),(' '),'Spatial InterOp 3D',' ',' ');
FILE_SCHEMA(('CONFIG_CONTROL_DESIGN'));
ENDSEC;
DATA;
#1=DESIGN_CONTEXT('',#27,'design');
#2=APPLICATION_PROTOCOL_DEFINITION('INTERNATIONAL STANDARD','config_control_design',1994,#27);
#3=PRODUCT_CATEGORY_RELATIONSHIP('NONE','NONE',#28,#29);
#4=DATE_AND_TIME(#30,#31);
#5=DATE_TIME_ROLE('creation_date');
#6=DATE_TIME_ROLE('classification_date');
#7=PERSON_AND_ORGANIZATION_ROLE('creator');
#8=PERSON_AND_ORGANIZATION_ROLE('design_supplier');
#9=PERSON_AND_ORGANIZATION_ROLE('classification_officer');
#10=PERSON_AND_ORGANIZATION_ROLE('design_owner');
#11=APPROVAL_PERSON_ORGANIZATION(#32,#33,#34);
#12=APPROVAL_DATE_TIME(#4,#33);
#13=CC_DESIGN_APPROVAL(#33,(#35,#36,#37));
#14=CC_DESIGN_DATE_AND_TIME_ASSIGNMENT(#4,#5,(#37));
#15=CC_DESIGN_DATE_AND_TIME_ASSIGNMENT(#4,#6,(#35));
#16=CC_DESIGN_PERSON_AND_ORGANIZATION_ASSIGNMENT(#32,#10,(#38));
#17=CC_DESIGN_PERSON_AND_ORGANIZATION_ASSIGNMENT(#32,#7,(#37));
#18=CC_DESIGN_PERSON_AND_ORGANIZATION_ASSIGNMENT(#32,#7,(#36));
#19=CC_DESIGN_PERSON_AND_ORGANIZATION_ASSIGNMENT(#32,#8,(#36));
#20=CC_DESIGN_SECURITY_CLASSIFICATION(#35,(#36));
#21=CC_DESIGN_PERSON_AND_ORGANIZATION_ASSIGNMENT(#32,#9,(#35));
#22=SHAPE_DEFINITION_REPRESENTATION(#39,#40);
#23= (GEOMETRIC_REPRESENTATION_CONTEXT(3)GLOBAL_UNCERTAINTY_ASSIGNED_CONTEXT((#43))GLOBAL_UNIT_ASSIGNED_CONTEXT((#45,#46,#47))REPRESENTATION_CONTEXT('NONE','WORKSPACE'));
#27=APPLICATION_CONTEXT('CONFIGURATION CONTROLLED 3D DESIGNS OF MECHANICAL PARTS AND ASSEMBLIES');
#28=PRODUCT_CATEGORY('part','NONE');
#29=PRODUCT_RELATED_PRODUCT_CATEGORY('detail',' ',(#38));
#30=CALENDAR_DATE(2019,25,6);
#31=LOCAL_TIME(11,23,47.0,#49);
#32=PERSON_AND_ORGANIZATION(#50,#51);
#33=APPROVAL(#52,'SOLID MODEL');
#34=APPROVAL_ROLE('APPROVED');
#35=SECURITY_CLASSIFICATION('','',#53);
#36=PRODUCT_DEFINITION_FORMATION_WITH_SPECIFIED_SOURCE(' ','NONE',#38,.NOT_KNOWN.);
#37=PRODUCT_DEFINITION('','NONE',#36,#1);
#38=PRODUCT('1','','PART--DESC',(#54));
#39=PRODUCT_DEFINITION_SHAPE('NONE','NONE',#37);
#40=ADVANCED_BREP_SHAPE_REPRESENTATION('1',(#55,#56),#23);
#43=UNCERTAINTY_MEASURE_WITH_UNIT(LENGTH_MEASURE(1.0E-06),#45,'','');
#45= (CONVERSION_BASED_UNIT('MILLIMETRE',#59)LENGTH_UNIT()NAMED_UNIT(#62));
#46= (NAMED_UNIT(#64)PLANE_ANGLE_UNIT()SI_UNIT($,.RADIAN.));
#47= (NAMED_UNIT(#64)SOLID_ANGLE_UNIT()SI_UNIT($,.STERADIAN.));
#49=COORDINATED_UNIVERSAL_TIME_OFFSET(1,0,.AHEAD.);
#50=PERSON('','UNSPECIFIED',$,$,$,$);
#51=ORGANIZATION('UNSPECIFIED','UNSPECIFIED','UNSPECIFIED');
#52=APPROVAL_STATUS('approved');
#53=SECURITY_CLASSIFICATION_LEVEL('unclassified');
#54=MECHANICAL_CONTEXT('',#27,'mechanical');
#55=MANIFOLD_SOLID_BREP('1',#70);
#56=AXIS2_PLACEMENT_3D('',#71,#72,#73);
#59=LENGTH_MEASURE_WITH_UNIT(LENGTH_MEASURE(1.0),#74);
#62=DIMENSIONAL_EXPONENTS(1.0,0.0,0.0,0.0,0.0,0.0,0.0);
#64=DIMENSIONAL_EXPONENTS(0.0,0.0,0.0,0.0,0.0,0.0,0.0);
#70=CLOSED_SHELL('',(#75,#76,#77,#78,#79,#80,#81,#82,#83,#84,#85,#86,#87,#88,#89,#90,#91,#92));
#71=CARTESIAN_POINT('',(0.0,0.0,0.0));
#72=DIRECTION('',(0.0,0.0,1.0));
#73=DIRECTION('',(1.0,0.0,0.0));
#74= (NAMED_UNIT(#62)LENGTH_UNIT()SI_UNIT(.MILLI.,.METRE.));
#75=ADVANCED_FACE('',(#94),#95,.T.);
#76=ADVANCED_FACE('',(#96),#97,.T.);
#77=ADVANCED_FACE('',(#98),#99,.T.);
#78=ADVANCED_FACE('',(#100),#101,.T.);
#79=ADVANCED_FACE('',(#102),#103,.T.);
#80=ADVANCED_FACE('',(#104),#105,.T.);
#81=ADVANCED_FACE('',(#106),#107,.T.);
#82=ADVANCED_FACE('',(#108),#109,.T.);
#83=ADVANCED_FACE('',(#110),#111,.T.);
#84=ADVANCED_FACE('',(#112),#113,.F.);
#85=ADVANCED_FACE('',(#114),#115,.T.);
#86=ADVANCED_FACE('',(#116),#117,.F.);
#87=ADVANCED_FACE('',(#118),#119,.T.);
#88=ADVANCED_FACE('',(#120),#121,.F.);
#89=ADVANCED_FACE('',(#122),#123,.T.);
#90=ADVANCED_FACE('',(#124),#125,.F.);
#91=ADVANCED_FACE('',(#126,#127),#128,.F.);
#92=ADVANCED_FACE('',(#129,#130),#131,.T.);
#94=FACE_OUTER_BOUND('',#132,.T.);
#95=CYLINDRICAL_SURFACE('',#133,16.0);
#96=FACE_OUTER_BOUND('',#134,.T.);
#97=PLANE('',#135);
#98=FACE_OUTER_BOUND('',#136,.T.);
#99=CYLINDRICAL_SURFACE('',#137,16.0);
#100=FACE_OUTER_BOUND('',#138,.T.);
#101=PLANE('',#139);
#102=FACE_OUTER_BOUND('',#140,.T.);
#103=CYLINDRICAL_SURFACE('',#141,16.0);
#104=FACE_OUTER_BOUND('',#142,.T.);
#105=PLANE('',#143);
#106=FACE_OUTER_BOUND('',#144,.T.);
#107=CYLINDRICAL_SURFACE('',#145,16.0);
#108=FACE_OUTER_BOUND('',#146,.T.);
#109=PLANE('',#147);
#110=FACE_OUTER_BOUND('',#148,.T.);
#111=PLANE('',#149);
#112=FACE_OUTER_BOUND('',#150,.T.);
#113=CYLINDRICAL_SURFACE('',#151,13.8);
#114=FACE_OUTER_BOUND('',#152,.T.);
#115=PLANE('',#153);
#116=FACE_OUTER_BOUND('',#154,.T.);
#117=CYLINDRICAL_SURFACE('',#155,13.8);
#118=FACE_OUTER_BOUND('',#156,.T.);
#119=PLANE('',#157);
#120=FACE_OUTER_BOUND('',#158,.T.);
#121=CYLINDRICAL_SURFACE('',#159,13.8);
#122=FACE_OUTER_BOUND('',#160,.T.);
#123=PLANE('',#161);
#124=FACE_OUTER_BOUND('',#162,.T.);
#125=CYLINDRICAL_SURFACE('',#163,13.8);
#126=FACE_BOUND('',#164,.T.);
#127=FACE_OUTER_BOUND('',#165,.T.);
#128=PLANE('',#166);
#129=FACE_BOUND('',#167,.T.);
#130=FACE_OUTER_BOUND('',#168,.T.);
#131=PLANE('',#169);
#132=EDGE_LOOP('',(#170,#171,#172,#173));
#133=AXIS2_PLACEMENT_3D('',#174,#175,#176);
#134=EDGE_LOOP('',(#177,#178,#179,#180));
#135=AXIS2_PLACEMENT_3D('',#181,#182,#183);
#136=EDGE_LOOP('',(#184,#185,#186,#187));
#137=AXIS2_PLACEMENT_3D('',#188,#189,#190);
#138=EDGE_LOOP('',(#191,#192,#193,#194));
#139=AXIS2_PLACEMENT_3D('',#195,#196,#197);
#140=EDGE_LOOP('',(#198,#199,#200,#201));
#141=AXIS2_PLACEMENT_3D('',#202,#203,#204);
#142=EDGE_LOOP('',(#205,#206,#207,#208));
#143=AXIS2_PLACEMENT_3D('',#209,#210,#211);
#144=EDGE_LOOP('',(#212,#213,#214,#215));
#145=AXIS2_PLACEMENT_3D('',#216,#217,#218);
#146=EDGE_LOOP('',(#219,#220,#221,#222));
#147=AXIS2_PLACEMENT_3D('',#223,#224,#225);
#148=EDGE_LOOP('',(#226,#227,#228,#229));
#149=AXIS2_PLACEMENT_3D('',#230,#231,#232);
#150=EDGE_LOOP('',(#233,#234,#235,#236));
#151=AXIS2_PLACEMENT_3D('',#237,#238,#239);
#152=EDGE_LOOP('',(#240,#241,#242,#243));
#153=AXIS2_PLACEMENT_3D('',#244,#245,#246);
#154=EDGE_LOOP('',(#247,#248,#249,#250));
#155=AXIS2_PLACEMENT_3D('',#251,#252,#253);
#156=EDGE_LOOP('',(#254,#255,#256,#257));
#157=AXIS2_PLACEMENT_3D('',#258,#259,#260);
#158=EDGE_LOOP('',(#261,#262,#263,#264));
#159=AXIS2_PLACEMENT_3D('',#265,#266,#267);
#160=EDGE_LOOP('',(#268,#269,#270,#271));
#161=AXIS2_PLACEMENT_3D('',#272,#273,#274);
#162=EDGE_LOOP('',(#275,#276,#277,#278));
#163=AXIS2_PLACEMENT_3D('',#279,#280,#281);
#164=EDGE_LOOP('',(#282,#283,#284,#285,#286,#287,#288,#289));
#165=EDGE_LOOP('',(#290,#291,#292,#293,#294,#295,#296,#297));
#166=AXIS2_PLACEMENT_3D('',#298,#299,#300);
#167=EDGE_LOOP('',(#301,#302,#303,#304,#305,#306,#307,#308));
#168=EDGE_LOOP('',(#309,#310,#311,#312,#313,#314,#315,#316));
#169=AXIS2_PLACEMENT_3D('',#317,#318,#319);
#170=ORIENTED_EDGE('',*,*,#320,.T.);
#171=ORIENTED_EDGE('',*,*,#321,.F.);
#172=ORIENTED_EDGE('',*,*,#322,.F.);
#173=ORIENTED_EDGE('',*,*,#323,.T.);
#174=CARTESIAN_POINT('',(180.7,156.5,0.0));
#175=DIRECTION('',(0.0,0.0,-1.0));
#176=DIRECTION('',(1.0,0.0,0.0));
#177=ORIENTED_EDGE('',*,*,#324,.T.);
#178=ORIENTED_EDGE('',*,*,#325,.F.);
#179=ORIENTED_EDGE('',*,*,#326,.T.);
#180=ORIENTED_EDGE('',*,*,#321,.T.);
#181=CARTESIAN_POINT('',(112.2,172.5,0.0));
#182=DIRECTION('',(-0.0,1.0,0.0));
#183=DIRECTION('',(1.0,0.0,0.0));
#184=ORIENTED_EDGE('',*,*,#327,.T.);
#185=ORIENTED_EDGE('',*,*,#328,.F.);
#186=ORIENTED_EDGE('',*,*,#329,.F.);
#187=ORIENTED_EDGE('',*,*,#325,.T.);
#188=CARTESIAN_POINT('',(43.7,156.5,0.0));
#189=DIRECTION('',(0.0,0.0,-1.0));
#190=DIRECTION('',(1.0,0.0,0.0));
#191=ORIENTED_EDGE('',*,*,#330,.T.);
#192=ORIENTED_EDGE('',*,*,#331,.F.);
#193=ORIENTED_EDGE('',*,*,#332,.T.);
#194=ORIENTED_EDGE('',*,*,#328,.T.);
#195=CARTESIAN_POINT('',(27.7,134.0,0.0));
#196=DIRECTION('',(-1.0,0.0,0.0));
#197=DIRECTION('',(0.0,1.0,0.0));
#198=ORIENTED_EDGE('',*,*,#333,.T.);
#199=ORIENTED_EDGE('',*,*,#334,.F.);
#200=ORIENTED_EDGE('',*,*,#335,.F.);
#201=ORIENTED_EDGE('',*,*,#331,.T.);
#202=CARTESIAN_POINT('',(43.7,111.5,0.0));
#203=DIRECTION('',(0.0,0.0,-1.0));
#204=DIRECTION('',(1.0,0.0,0.0));
#205=ORIENTED_EDGE('',*,*,#336,.T.);
#206=ORIENTED_EDGE('',*,*,#337,.F.);
#207=ORIENTED_EDGE('',*,*,#338,.T.);
#208=ORIENTED_EDGE('',*,*,#334,.T.);
#209=CARTESIAN_POINT('',(112.2,95.5,0.0));
#210=DIRECTION('',(-0.0,-1.0,-0.0));
#211=DIRECTION('',(-1.0,0.0,0.0));
#212=ORIENTED_EDGE('',*,*,#339,.T.);
#213=ORIENTED_EDGE('',*,*,#340,.F.);
#214=ORIENTED_EDGE('',*,*,#341,.F.);
#215=ORIENTED_EDGE('',*,*,#337,.T.);
#216=CARTESIAN_POINT('',(180.7,111.5,0.0));
#217=DIRECTION('',(0.0,0.0,-1.0));
#218=DIRECTION('',(1.0,0.0,0.0));
#219=ORIENTED_EDGE('',*,*,#342,.T.);
#220=ORIENTED_EDGE('',*,*,#323,.F.);
#221=ORIENTED_EDGE('',*,*,#343,.T.);
#222=ORIENTED_EDGE('',*,*,#340,.T.);
#223=CARTESIAN_POINT('',(196.7,134.0,0.0));
#224=DIRECTION('',(1.0,0.0,0.0));
#225=DIRECTION('',(0.0,-1.0,0.0));
#226=ORIENTED_EDGE('',*,*,#344,.T.);
#227=ORIENTED_EDGE('',*,*,#345,.F.);
#228=ORIENTED_EDGE('',*,*,#346,.F.);
#229=ORIENTED_EDGE('',*,*,#347,.T.);
#230=CARTESIAN_POINT('',(112.2,97.7,0.0));
#231=DIRECTION('',(0.0,1.0,0.0));
#232=DIRECTION('',(1.0,-0.0,-0.0));
#233=ORIENTED_EDGE('',*,*,#348,.T.);
#234=ORIENTED_EDGE('',*,*,#349,.F.);
#235=ORIENTED_EDGE('',*,*,#350,.T.);
#236=ORIENTED_EDGE('',*,*,#345,.T.);
#237=CARTESIAN_POINT('',(43.7,111.5,0.0));
#238=DIRECTION('',(0.0,0.0,-1.0));
#239=DIRECTION('',(1.0,0.0,0.0));
#240=ORIENTED_EDGE('',*,*,#351,.T.);
#241=ORIENTED_EDGE('',*,*,#352,.F.);
#242=ORIENTED_EDGE('',*,*,#353,.F.);
#243=ORIENTED_EDGE('',*,*,#349,.T.);
#244=CARTESIAN_POINT('',(29.9,134.0,0.0));
#245=DIRECTION('',(1.0,-0.0,0.0));
#246=DIRECTION('',(-0.0,-1.0,-0.0));
#247=ORIENTED_EDGE('',*,*,#354,.T.);
#248=ORIENTED_EDGE('',*,*,#355,.F.);
#249=ORIENTED_EDGE('',*,*,#356,.T.);
#250=ORIENTED_EDGE('',*,*,#352,.T.);
#251=CARTESIAN_POINT('',(43.7,156.5,0.0));
#252=DIRECTION('',(0.0,0.0,-1.0));
#253=DIRECTION('',(1.0,0.0,0.0));
#254=ORIENTED_EDGE('',*,*,#357,.T.);
#255=ORIENTED_EDGE('',*,*,#358,.F.);
#256=ORIENTED_EDGE('',*,*,#359,.F.);
#257=ORIENTED_EDGE('',*,*,#355,.T.);
#258=CARTESIAN_POINT('',(112.2,170.3,0.0));
#259=DIRECTION('',(0.0,-1.0,-0.0));
#260=DIRECTION('',(-1.0,0.0,-0.0));
#261=ORIENTED_EDGE('',*,*,#360,.T.);
#262=ORIENTED_EDGE('',*,*,#361,.F.);
#263=ORIENTED_EDGE('',*,*,#362,.T.);
#264=ORIENTED_EDGE('',*,*,#358,.T.);
#265=CARTESIAN_POINT('',(180.7,156.5,0.0));
#266=DIRECTION('',(0.0,0.0,-1.0));
#267=DIRECTION('',(1.0,0.0,0.0));
#268=ORIENTED_EDGE('',*,*,#363,.T.);
#269=ORIENTED_EDGE('',*,*,#364,.F.);
#270=ORIENTED_EDGE('',*,*,#365,.F.);
#271=ORIENTED_EDGE('',*,*,#361,.T.);
#272=CARTESIAN_POINT('',(194.5,134.0,0.0));
#273=DIRECTION('',(-1.0,0.0,0.0));
#274=DIRECTION('',(0.0,1.0,0.0));
#275=ORIENTED_EDGE('',*,*,#366,.T.);
#276=ORIENTED_EDGE('',*,*,#347,.F.);
#277=ORIENTED_EDGE('',*,*,#367,.T.);
#278=ORIENTED_EDGE('',*,*,#364,.T.);
#279=CARTESIAN_POINT('',(180.7,111.5,0.0));
#280=DIRECTION('',(0.0,0.0,-1.0));
#281=DIRECTION('',(1.0,0.0,0.0));
#282=ORIENTED_EDGE('',*,*,#344,.F.);
#283=ORIENTED_EDGE('',*,*,#366,.F.);
#284=ORIENTED_EDGE('',*,*,#363,.F.);
#285=ORIENTED_EDGE('',*,*,#360,.F.);
#286=ORIENTED_EDGE('',*,*,#357,.F.);
#287=ORIENTED_EDGE('',*,*,#354,.F.);
#288=ORIENTED_EDGE('',*,*,#351,.F.);
#289=ORIENTED_EDGE('',*,*,#348,.F.);
#290=ORIENTED_EDGE('',*,*,#320,.F.);
#291=ORIENTED_EDGE('',*,*,#342,.F.);
#292=ORIENTED_EDGE('',*,*,#339,.F.);
#293=ORIENTED_EDGE('',*,*,#336,.F.);
#294=ORIENTED_EDGE('',*,*,#333,.F.);
#295=ORIENTED_EDGE('',*,*,#330,.F.);
#296=ORIENTED_EDGE('',*,*,#327,.F.);
#297=ORIENTED_EDGE('',*,*,#324,.F.);
#298=CARTESIAN_POINT('',(112.2,134.0,-1000.0));
#299=DIRECTION('',(0.0,0.0,1.0));
#300=DIRECTION('',(1.0,0.0,0.0));
#301=ORIENTED_EDGE('',*,*,#367,.F.);
#302=ORIENTED_EDGE('',*,*,#346,.T.);
#303=ORIENTED_EDGE('',*,*,#350,.F.);
#304=ORIENTED_EDGE('',*,*,#353,.T.);
#305=ORIENTED_EDGE('',*,*,#356,.F.);
#306=ORIENTED_EDGE('',*,*,#359,.T.);
#307=ORIENTED_EDGE('',*,*,#362,.F.);
#308=ORIENTED_EDGE('',*,*,#365,.T.);
#309=ORIENTED_EDGE('',*,*,#343,.F.);
#310=ORIENTED_EDGE('',*,*,#322,.T.);
#311=ORIENTED_EDGE('',*,*,#326,.F.);
#312=ORIENTED_EDGE('',*,*,#329,.T.);
#313=ORIENTED_EDGE('',*,*,#332,.F.);
#314=ORIENTED_EDGE('',*,*,#335,.T.);
#315=ORIENTED_EDGE('',*,*,#338,.F.);
#316=ORIENTED_EDGE('',*,*,#341,.T.);
#317=CARTESIAN_POINT('',(112.2,134.0,0.0));
#318=DIRECTION('',(0.0,0.0,1.0));
#319=DIRECTION('',(1.0,0.0,0.0));
#320=EDGE_CURVE('',#368,#369,#370,.T.);
#321=EDGE_CURVE('',#371,#369,#372,.T.);
#322=EDGE_CURVE('',#373,#371,#374,.T.);
#323=EDGE_CURVE('',#373,#368,#375,.T.);
#324=EDGE_CURVE('',#369,#376,#377,.T.);
#325=EDGE_CURVE('',#378,#376,#379,.T.);
#326=EDGE_CURVE('',#378,#371,#380,.T.);
#327=EDGE_CURVE('',#376,#381,#382,.T.);
#328=EDGE_CURVE('',#383,#381,#384,.T.);
#329=EDGE_CURVE('',#378,#383,#385,.T.);
#330=EDGE_CURVE('',#381,#386,#387,.T.);
#331=EDGE_CURVE('',#388,#386,#389,.T.);
#332=EDGE_CURVE('',#388,#383,#390,.T.);
#333=EDGE_CURVE('',#386,#391,#392,.T.);
#334=EDGE_CURVE('',#393,#391,#394,.T.);
#335=EDGE_CURVE('',#388,#393,#395,.T.);
#336=EDGE_CURVE('',#391,#396,#397,.T.);
#337=EDGE_CURVE('',#398,#396,#399,.T.);
#338=EDGE_CURVE('',#398,#393,#400,.T.);
#339=EDGE_CURVE('',#396,#401,#402,.T.);
#340=EDGE_CURVE('',#403,#401,#404,.T.);
#341=EDGE_CURVE('',#398,#403,#405,.T.);
#342=EDGE_CURVE('',#401,#368,#406,.T.);
#343=EDGE_CURVE('',#373,#403,#407,.T.);
#344=EDGE_CURVE('',#408,#409,#410,.T.);
#345=EDGE_CURVE('',#411,#409,#412,.T.);
#346=EDGE_CURVE('',#413,#411,#414,.T.);
#347=EDGE_CURVE('',#413,#408,#415,.T.);
#348=EDGE_CURVE('',#409,#416,#417,.T.);
#349=EDGE_CURVE('',#418,#416,#419,.T.);
#350=EDGE_CURVE('',#418,#411,#420,.T.);
#351=EDGE_CURVE('',#416,#421,#422,.T.);
#352=EDGE_CURVE('',#423,#421,#424,.T.);
#353=EDGE_CURVE('',#418,#423,#425,.T.);
#354=EDGE_CURVE('',#421,#426,#427,.T.);
#355=EDGE_CURVE('',#428,#426,#429,.T.);
#356=EDGE_CURVE('',#428,#423,#430,.T.);
#357=EDGE_CURVE('',#426,#431,#432,.T.);
#358=EDGE_CURVE('',#433,#431,#434,.T.);
#359=EDGE_CURVE('',#428,#433,#435,.T.);
#360=EDGE_CURVE('',#431,#436,#437,.T.);
#361=EDGE_CURVE('',#438,#436,#439,.T.);
#362=EDGE_CURVE('',#438,#433,#440,.T.);
#363=EDGE_CURVE('',#436,#441,#442,.T.);
#364=EDGE_CURVE('',#443,#441,#444,.T.);
#365=EDGE_CURVE('',#438,#443,#445,.T.);
#366=EDGE_CURVE('',#441,#408,#446,.T.);
#367=EDGE_CURVE('',#413,#443,#447,.T.);
#368=VERTEX_POINT('',#448);
#369=VERTEX_POINT('',#449);
#370=CIRCLE('',#450,16.0);
#371=VERTEX_POINT('',#451);
#372=LINE('',#452,#453);
#373=VERTEX_POINT('',#454);
#374=CIRCLE('',#455,16.0);
#375=LINE('',#456,#457);
#376=VERTEX_POINT('',#458);
#377=LINE('',#459,#460);
#378=VERTEX_POINT('',#461);
#379=LINE('',#462,#463);
#380=LINE('',#464,#465);
#381=VERTEX_POINT('',#466);
#382=CIRCLE('',#467,16.0);
#383=VERTEX_POINT('',#468);
#384=LINE('',#469,#470);
#385=CIRCLE('',#471,16.0);
#386=VERTEX_POINT('',#472);
#387=LINE('',#473,#474);
#388=VERTEX_POINT('',#475);
#389=LINE('',#476,#477);
#390=LINE('',#478,#479);
#391=VERTEX_POINT('',#480);
#392=CIRCLE('',#481,16.0);
#393=VERTEX_POINT('',#482);
#394=LINE('',#483,#484);
#395=CIRCLE('',#485,16.0);
#396=VERTEX_POINT('',#486);
#397=LINE('',#487,#488);
#398=VERTEX_POINT('',#489);
#399=LINE('',#490,#491);
#400=LINE('',#492,#493);
#401=VERTEX_POINT('',#494);
#402=CIRCLE('',#495,16.0);
#403=VERTEX_POINT('',#496);
#404=LINE('',#497,#498);
#405=CIRCLE('',#499,16.0);
#406=LINE('',#500,#501);
#407=LINE('',#502,#503);
#408=VERTEX_POINT('',#504);
#409=VERTEX_POINT('',#505);
#410=LINE('',#506,#507);
#411=VERTEX_POINT('',#508);
#412=LINE('',#509,#510);
#413=VERTEX_POINT('',#511);
#414=LINE('',#512,#513);
#415=LINE('',#514,#515);
#416=VERTEX_POINT('',#516);
#417=CIRCLE('',#517,13.8);
#418=VERTEX_POINT('',#518);
#419=LINE('',#519,#520);
#420=CIRCLE('',#521,13.8);
#421=VERTEX_POINT('',#522);
#422=LINE('',#523,#524);
#423=VERTEX_POINT('',#525);
#424=LINE('',#526,#527);
#425=LINE('',#528,#529);
#426=VERTEX_POINT('',#530);
#427=CIRCLE('',#531,13.8);
#428=VERTEX_POINT('',#532);
#429=LINE('',#533,#534);
#430=CIRCLE('',#535,13.8);
#431=VERTEX_POINT('',#536);
#432=LINE('',#537,#538);
#433=VERTEX_POINT('',#539);
#434=LINE('',#540,#541);
#435=LINE('',#542,#543);
#436=VERTEX_POINT('',#544);
#437=CIRCLE('',#545,13.8);
#438=VERTEX_POINT('',#546);
#439=LINE('',#547,#548);
#440=CIRCLE('',#549,13.8);
#441=VERTEX_POINT('',#550);
#442=LINE('',#551,#552);
#443=VERTEX_POINT('',#553);
#444=LINE('',#554,#555);
#445=LINE('',#556,#557);
#446=CIRCLE('',#558,13.8);
#447=CIRCLE('',#559,13.8);
#448=CARTESIAN_POINT('',(196.7,156.5,-1000.0));
#449=CARTESIAN_POINT('',(180.7,172.5,-1000.0));
#450=AXIS2_PLACEMENT_3D('',#560,#561,#562);
#451=CARTESIAN_POINT('',(180.7,172.5,0.0));
#452=CARTESIAN_POINT('',(180.7,172.5,0.0));
#453=VECTOR('',#563,1.0);
#454=CARTESIAN_POINT('',(196.7,156.5,0.0));
#455=AXIS2_PLACEMENT_3D('',#564,#565,#566);
#456=CARTESIAN_POINT('',(196.7,156.5,0.0));
#457=VECTOR('',#567,1.0);
#458=CARTESIAN_POINT('',(43.7,172.5,-1000.0));
#459=CARTESIAN_POINT('',(43.7,172.5,-1000.0));
#460=VECTOR('',#568,1.0);
#461=CARTESIAN_POINT('',(43.7,172.5,0.0));
#462=CARTESIAN_POINT('',(43.7,172.5,0.0));
#463=VECTOR('',#569,1.0);
#464=CARTESIAN_POINT('',(43.7,172.5,0.0));
#465=VECTOR('',#570,1.0);
#466=CARTESIAN_POINT('',(27.7,156.5,-1000.0));
#467=AXIS2_PLACEMENT_3D('',#571,#572,#573);
#468=CARTESIAN_POINT('',(27.7,156.5,0.0));
#469=CARTESIAN_POINT('',(27.7,156.5,0.0));
#470=VECTOR('',#574,1.0);
#471=AXIS2_PLACEMENT_3D('',#575,#576,#577);
#472=CARTESIAN_POINT('',(27.7,111.5,-1000.0));
#473=CARTESIAN_POINT('',(27.7,111.5,-1000.0));
#474=VECTOR('',#578,1.0);
#475=CARTESIAN_POINT('',(27.7,111.5,0.0));
#476=CARTESIAN_POINT('',(27.7,111.5,0.0));
#477=VECTOR('',#579,1.0);
#478=CARTESIAN_POINT('',(27.7,111.5,0.0));
#479=VECTOR('',#580,1.0);
#480=CARTESIAN_POINT('',(43.7,95.5,-1000.0));
#481=AXIS2_PLACEMENT_3D('',#581,#582,#583);
#482=CARTESIAN_POINT('',(43.7,95.5,0.0));
#483=CARTESIAN_POINT('',(43.7,95.5,0.0));
#484=VECTOR('',#584,1.0);
#485=AXIS2_PLACEMENT_3D('',#585,#586,#587);
#486=CARTESIAN_POINT('',(180.7,95.5,-1000.0));
#487=CARTESIAN_POINT('',(180.7,95.5,-1000.0));
#488=VECTOR('',#588,1.0);
#489=CARTESIAN_POINT('',(180.7,95.5,0.0));
#490=CARTESIAN_POINT('',(180.7,95.5,0.0));
#491=VECTOR('',#589,1.0);
#492=CARTESIAN_POINT('',(180.7,95.5,0.0));
#493=VECTOR('',#590,1.0);
#494=CARTESIAN_POINT('',(196.7,111.5,-1000.0));
#495=AXIS2_PLACEMENT_3D('',#591,#592,#593);
#496=CARTESIAN_POINT('',(196.7,111.5,0.0));
#497=CARTESIAN_POINT('',(196.7,111.5,0.0));
#498=VECTOR('',#594,1.0);
#499=AXIS2_PLACEMENT_3D('',#595,#596,#597);
#500=CARTESIAN_POINT('',(196.7,156.5,-1000.0));
#501=VECTOR('',#598,1.0);
#502=CARTESIAN_POINT('',(196.7,156.5,0.0));
#503=VECTOR('',#599,1.0);
#504=CARTESIAN_POINT('',(180.7,97.7,-1000.0));
#505=CARTESIAN_POINT('',(43.7,97.7,-1000.0));
#506=CARTESIAN_POINT('',(180.7,97.7,-1000.0));
#507=VECTOR('',#600,1.0);
#508=CARTESIAN_POINT('',(43.7,97.7,0.0));
#509=CARTESIAN_POINT('',(43.7,97.7,0.0));
#510=VECTOR('',#601,1.0);
#511=CARTESIAN_POINT('',(180.7,97.7,0.0));
#512=CARTESIAN_POINT('',(180.7,97.7,0.0));
#513=VECTOR('',#602,1.0);
#514=CARTESIAN_POINT('',(180.7,97.7,0.0));
#515=VECTOR('',#603,1.0);
#516=CARTESIAN_POINT('',(29.9,111.5,-1000.0));
#517=AXIS2_PLACEMENT_3D('',#604,#605,#606);
#518=CARTESIAN_POINT('',(29.9,111.5,0.0));
#519=CARTESIAN_POINT('',(29.9,111.5,0.0));
#520=VECTOR('',#607,1.0);
#521=AXIS2_PLACEMENT_3D('',#608,#609,#610);
#522=CARTESIAN_POINT('',(29.9,156.5,-1000.0));
#523=CARTESIAN_POINT('',(29.9,111.5,-1000.0));
#524=VECTOR('',#611,1.0);
#525=CARTESIAN_POINT('',(29.9,156.5,0.0));
#526=CARTESIAN_POINT('',(29.9,156.5,0.0));
#527=VECTOR('',#612,1.0);
#528=CARTESIAN_POINT('',(29.9,111.5,0.0));
#529=VECTOR('',#613,1.0);
#530=CARTESIAN_POINT('',(43.7,170.3,-1000.0));
#531=AXIS2_PLACEMENT_3D('',#614,#615,#616);
#532=CARTESIAN_POINT('',(43.7,170.3,0.0));
#533=CARTESIAN_POINT('',(43.7,170.3,0.0));
#534=VECTOR('',#617,1.0);
#535=AXIS2_PLACEMENT_3D('',#618,#619,#620);
#536=CARTESIAN_POINT('',(180.7,170.3,-1000.0));
#537=CARTESIAN_POINT('',(43.7,170.3,-1000.0));
#538=VECTOR('',#621,1.0);
#539=CARTESIAN_POINT('',(180.7,170.3,0.0));
#540=CARTESIAN_POINT('',(180.7,170.3,0.0));
#541=VECTOR('',#622,1.0);
#542=CARTESIAN_POINT('',(43.7,170.3,0.0));
#543=VECTOR('',#623,1.0);
#544=CARTESIAN_POINT('',(194.5,156.5,-1000.0));
#545=AXIS2_PLACEMENT_3D('',#624,#625,#626);
#546=CARTESIAN_POINT('',(194.5,156.5,0.0));
#547=CARTESIAN_POINT('',(194.5,156.5,0.0));
#548=VECTOR('',#627,1.0);
#549=AXIS2_PLACEMENT_3D('',#628,#629,#630);
#550=CARTESIAN_POINT('',(194.5,111.5,-1000.0));
#551=CARTESIAN_POINT('',(194.5,156.5,-1000.0));
#552=VECTOR('',#631,1.0);
#553=CARTESIAN_POINT('',(194.5,111.5,0.0));
#554=CARTESIAN_POINT('',(194.5,111.5,0.0));
#555=VECTOR('',#632,1.0);
#556=CARTESIAN_POINT('',(194.5,156.5,0.0));
#557=VECTOR('',#633,1.0);
#558=AXIS2_PLACEMENT_3D('',#634,#635,#636);
#559=AXIS2_PLACEMENT_3D('',#637,#638,#639);
#560=CARTESIAN_POINT('',(180.7,156.5,-1000.0));
#561=DIRECTION('',(0.0,0.0,1.0));
#562=DIRECTION('',(1.0,0.0,0.0));
#563=DIRECTION('',(0.0,0.0,-1.0));
#564=CARTESIAN_POINT('',(180.7,156.5,0.0));
#565=DIRECTION('',(0.0,0.0,1.0));
#566=DIRECTION('',(1.0,0.0,0.0));
#567=DIRECTION('',(0.0,0.0,-1.0));
#568=DIRECTION('',(-1.0,-0.0,-0.0));
#569=DIRECTION('',(0.0,0.0,-1.0));
#570=DIRECTION('',(1.0,0.0,0.0));
#571=CARTESIAN_POINT('',(43.7,156.5,-1000.0));
#572=DIRECTION('',(0.0,0.0,1.0));
#573=DIRECTION('',(1.0,0.0,0.0));
#574=DIRECTION('',(0.0,0.0,-1.0));
#575=CARTESIAN_POINT('',(43.7,156.5,0.0));
#576=DIRECTION('',(0.0,0.0,1.0));
#577=DIRECTION('',(1.0,0.0,0.0));
#578=DIRECTION('',(-0.0,-1.0,-0.0));
#579=DIRECTION('',(0.0,0.0,-1.0));
#580=DIRECTION('',(0.0,1.0,0.0));
#581=CARTESIAN_POINT('',(43.7,111.5,-1000.0));
#582=DIRECTION('',(0.0,0.0,1.0));
#583=DIRECTION('',(1.0,0.0,0.0));
#584=DIRECTION('',(0.0,0.0,-1.0));
#585=CARTESIAN_POINT('',(43.7,111.5,0.0));
#586=DIRECTION('',(0.0,0.0,1.0));
#587=DIRECTION('',(1.0,0.0,0.0));
#588=DIRECTION('',(1.0,0.0,0.0));
#589=DIRECTION('',(0.0,0.0,-1.0));
#590=DIRECTION('',(-1.0,0.0,0.0));
#591=CARTESIAN_POINT('',(180.7,111.5,-1000.0));
#592=DIRECTION('',(0.0,0.0,1.0));
#593=DIRECTION('',(1.0,0.0,0.0));
#594=DIRECTION('',(0.0,0.0,-1.0));
#595=CARTESIAN_POINT('',(180.7,111.5,0.0));
#596=DIRECTION('',(0.0,0.0,1.0));
#597=DIRECTION('',(1.0,0.0,0.0));
#598=DIRECTION('',(0.0,1.0,0.0));
#599=DIRECTION('',(0.0,-1.0,0.0));
#600=DIRECTION('',(-1.0,0.0,0.0));
#601=DIRECTION('',(0.0,0.0,-1.0));
#602=DIRECTION('',(-1.0,0.0,0.0));
#603=DIRECTION('',(0.0,0.0,-1.0));
#604=CARTESIAN_POINT('',(43.7,111.5,-1000.0));
#605=DIRECTION('',(0.0,0.0,-1.0));
#606=DIRECTION('',(1.0,0.0,0.0));
#607=DIRECTION('',(0.0,0.0,-1.0));
#608=CARTESIAN_POINT('',(43.7,111.5,0.0));
#609=DIRECTION('',(0.0,0.0,1.0));
#610=DIRECTION('',(1.0,0.0,0.0));
#611=DIRECTION('',(0.0,1.0,0.0));
#612=DIRECTION('',(0.0,0.0,-1.0));
#613=DIRECTION('',(0.0,1.0,0.0));
#614=CARTESIAN_POINT('',(43.7,156.5,-1000.0));
#615=DIRECTION('',(0.0,0.0,-1.0));
#616=DIRECTION('',(1.0,0.0,0.0));
#617=DIRECTION('',(0.0,0.0,-1.0));
#618=CARTESIAN_POINT('',(43.7,156.5,0.0));
#619=DIRECTION('',(0.0,0.0,1.0));
#620=DIRECTION('',(1.0,0.0,0.0));
#621=DIRECTION('',(1.0,0.0,0.0));
#622=DIRECTION('',(0.0,0.0,-1.0));
#623=DIRECTION('',(1.0,0.0,0.0));
#624=CARTESIAN_POINT('',(180.7,156.5,-1000.0));
#625=DIRECTION('',(0.0,0.0,-1.0));
#626=DIRECTION('',(1.0,0.0,0.0));
#627=DIRECTION('',(0.0,0.0,-1.0));
#628=CARTESIAN_POINT('',(180.7,156.5,0.0));
#629=DIRECTION('',(0.0,0.0,1.0));
#630=DIRECTION('',(1.0,0.0,0.0));
#631=DIRECTION('',(0.0,-1.0,0.0));
#632=DIRECTION('',(0.0,0.0,-1.0));
#633=DIRECTION('',(0.0,-1.0,0.0));
#634=CARTESIAN_POINT('',(180.7,111.5,-1000.0));
#635=DIRECTION('',(0.0,0.0,-1.0));
#636=DIRECTION('',(1.0,0.0,0.0));
#637=CARTESIAN_POINT('',(180.7,111.5,0.0));
#638=DIRECTION('',(0.0,0.0,1.0));
#639=DIRECTION('',(1.0,0.0,0.0));
ENDSEC;
END-ISO-10303-21;
