ISO-10303-21;
HEADER;
FILE_DESCRIPTION(('STEP AP203'),'1');
FILE_NAME('4040021_V F-VBS 150 Rohrbogenverbinder.STP','2019-02-26T11:07:35',(' '),(' '),'Spatial InterOp 3D',' ',' ');
FILE_SCHEMA(('CONFIG_CONTROL_DESIGN'));
ENDSEC;
DATA;
#1=DESIGN_CONTEXT('',#27,'design');
#2=APPLICATION_PROTOCOL_DEFINITION('INTERNATIONAL STANDARD','config_control_design',1994,#27);
#3=PRODUCT_CATEGORY_RELATIONSHIP('NONE','NONE',#28,#29);
#4=DATE_AND_TIME(#30,#31);
#5=DATE_TIME_ROLE('creation_date');
#6=DATE_TIME_ROLE('classification_date');
#7=PERSON_AND_ORGANIZATION_ROLE('creator');
#8=PERSON_AND_ORGANIZATION_ROLE('design_supplier');
#9=PERSON_AND_ORGANIZATION_ROLE('classification_officer');
#10=PERSON_AND_ORGANIZATION_ROLE('design_owner');
#11=APPROVAL_PERSON_ORGANIZATION(#32,#33,#34);
#12=APPROVAL_DATE_TIME(#4,#33);
#13=CC_DESIGN_APPROVAL(#33,(#35,#36,#37));
#14=CC_DESIGN_DATE_AND_TIME_ASSIGNMENT(#4,#5,(#37));
#15=CC_DESIGN_DATE_AND_TIME_ASSIGNMENT(#4,#6,(#35));
#16=CC_DESIGN_PERSON_AND_ORGANIZATION_ASSIGNMENT(#32,#10,(#38));
#17=CC_DESIGN_PERSON_AND_ORGANIZATION_ASSIGNMENT(#32,#7,(#37));
#18=CC_DESIGN_PERSON_AND_ORGANIZATION_ASSIGNMENT(#32,#7,(#36));
#19=CC_DESIGN_PERSON_AND_ORGANIZATION_ASSIGNMENT(#32,#8,(#36));
#20=CC_DESIGN_SECURITY_CLASSIFICATION(#35,(#36));
#21=CC_DESIGN_PERSON_AND_ORGANIZATION_ASSIGNMENT(#32,#9,(#35));
#22=SHAPE_DEFINITION_REPRESENTATION(#39,#40);
#23= (GEOMETRIC_REPRESENTATION_CONTEXT(3)GLOBAL_UNCERTAINTY_ASSIGNED_CONTEXT((#43))GLOBAL_UNIT_ASSIGNED_CONTEXT((#45,#46,#47))REPRESENTATION_CONTEXT('NONE','WORKSPACE'));
#27=APPLICATION_CONTEXT('CONFIGURATION CONTROLLED 3D DESIGNS OF MECHANICAL PARTS AND ASSEMBLIES');
#28=PRODUCT_CATEGORY('part','NONE');
#29=PRODUCT_RELATED_PRODUCT_CATEGORY('detail',' ',(#38));
#30=CALENDAR_DATE(2019,26,1);
#31=LOCAL_TIME(12,7,35.0,#49);
#32=PERSON_AND_ORGANIZATION(#50,#51);
#33=APPROVAL(#52,'SOLID MODEL');
#34=APPROVAL_ROLE('APPROVED');
#35=SECURITY_CLASSIFICATION('','',#53);
#36=PRODUCT_DEFINITION_FORMATION_WITH_SPECIFIED_SOURCE(' ','NONE',#38,.NOT_KNOWN.);
#37=PRODUCT_DEFINITION('','NONE',#36,#1);
#38=PRODUCT('1','','PART--DESC',(#54));
#39=PRODUCT_DEFINITION_SHAPE('NONE','NONE',#37);
#40=ADVANCED_BREP_SHAPE_REPRESENTATION('1',(#55,#56),#23);
#43=UNCERTAINTY_MEASURE_WITH_UNIT(LENGTH_MEASURE(1.0E-06),#45,'','');
#45= (CONVERSION_BASED_UNIT('MILLIMETRE',#59)LENGTH_UNIT()NAMED_UNIT(#62));
#46= (NAMED_UNIT(#64)PLANE_ANGLE_UNIT()SI_UNIT($,.RADIAN.));
#47= (NAMED_UNIT(#64)SOLID_ANGLE_UNIT()SI_UNIT($,.STERADIAN.));
#49=COORDINATED_UNIVERSAL_TIME_OFFSET(1,0,.AHEAD.);
#50=PERSON('','UNSPECIFIED',$,$,$,$);
#51=ORGANIZATION('UNSPECIFIED','UNSPECIFIED','UNSPECIFIED');
#52=APPROVAL_STATUS('approved');
#53=SECURITY_CLASSIFICATION_LEVEL('unclassified');
#54=MECHANICAL_CONTEXT('',#27,'mechanical');
#55=MANIFOLD_SOLID_BREP('1',#70);
#56=AXIS2_PLACEMENT_3D('',#71,#72,#73);
#59=LENGTH_MEASURE_WITH_UNIT(LENGTH_MEASURE(1.0),#74);
#62=DIMENSIONAL_EXPONENTS(1.0,0.0,0.0,0.0,0.0,0.0,0.0);
#64=DIMENSIONAL_EXPONENTS(0.0,0.0,0.0,0.0,0.0,0.0,0.0);
#70=CLOSED_SHELL('',(#75,#76,#77,#78,#79,#80,#81,#82,#83,#84,#85,#86,#87,#88,#89,#90,#91,#92));
#71=CARTESIAN_POINT('',(0.0,0.0,0.0));
#72=DIRECTION('',(0.0,0.0,1.0));
#73=DIRECTION('',(1.0,0.0,0.0));
#74= (NAMED_UNIT(#62)LENGTH_UNIT()SI_UNIT(.MILLI.,.METRE.));
#75=ADVANCED_FACE('',(#94,#95),#96,.T.);
#76=ADVANCED_FACE('',(#97),#98,.T.);
#77=ADVANCED_FACE('',(#99),#100,.T.);
#78=ADVANCED_FACE('',(#101),#102,.T.);
#79=ADVANCED_FACE('',(#103),#104,.T.);
#80=ADVANCED_FACE('',(#105),#106,.T.);
#81=ADVANCED_FACE('',(#107),#108,.F.);
#82=ADVANCED_FACE('',(#109),#110,.T.);
#83=ADVANCED_FACE('',(#111),#112,.F.);
#84=ADVANCED_FACE('',(#113),#114,.T.);
#85=ADVANCED_FACE('',(#115),#116,.T.);
#86=ADVANCED_FACE('',(#117),#118,.T.);
#87=ADVANCED_FACE('',(#119),#120,.T.);
#88=ADVANCED_FACE('',(#121),#122,.T.);
#89=ADVANCED_FACE('',(#123),#124,.F.);
#90=ADVANCED_FACE('',(#125),#126,.T.);
#91=ADVANCED_FACE('',(#127),#128,.F.);
#92=ADVANCED_FACE('',(#129,#130),#131,.F.);
#94=FACE_BOUND('',#132,.T.);
#95=FACE_OUTER_BOUND('',#133,.T.);
#96=PLANE('',#134);
#97=FACE_OUTER_BOUND('',#135,.T.);
#98=PLANE('',#136);
#99=FACE_OUTER_BOUND('',#137,.T.);
#100=CYLINDRICAL_SURFACE('',#138,20.0);
#101=FACE_OUTER_BOUND('',#139,.T.);
#102=PLANE('',#140);
#103=FACE_OUTER_BOUND('',#141,.T.);
#104=CYLINDRICAL_SURFACE('',#142,20.0);
#105=FACE_OUTER_BOUND('',#143,.T.);
#106=PLANE('',#144);
#107=FACE_OUTER_BOUND('',#145,.T.);
#108=CYLINDRICAL_SURFACE('',#146,17.8);
#109=FACE_OUTER_BOUND('',#147,.T.);
#110=PLANE('',#148);
#111=FACE_OUTER_BOUND('',#149,.T.);
#112=CYLINDRICAL_SURFACE('',#150,17.8);
#113=FACE_OUTER_BOUND('',#151,.T.);
#114=CYLINDRICAL_SURFACE('',#152,20.0);
#115=FACE_OUTER_BOUND('',#153,.T.);
#116=PLANE('',#154);
#117=FACE_OUTER_BOUND('',#155,.T.);
#118=CYLINDRICAL_SURFACE('',#156,20.0);
#119=FACE_OUTER_BOUND('',#157,.T.);
#120=PLANE('',#158);
#121=FACE_OUTER_BOUND('',#159,.T.);
#122=PLANE('',#160);
#123=FACE_OUTER_BOUND('',#161,.T.);
#124=CYLINDRICAL_SURFACE('',#162,17.8);
#125=FACE_OUTER_BOUND('',#163,.T.);
#126=PLANE('',#164);
#127=FACE_OUTER_BOUND('',#165,.T.);
#128=CYLINDRICAL_SURFACE('',#166,17.8);
#129=FACE_BOUND('',#167,.T.);
#130=FACE_OUTER_BOUND('',#168,.T.);
#131=PLANE('',#169);
#132=EDGE_LOOP('',(#170,#171,#172,#173,#174,#175,#176,#177));
#133=EDGE_LOOP('',(#178,#179,#180,#181,#182,#183,#184,#185));
#134=AXIS2_PLACEMENT_3D('',#186,#187,#188);
#135=EDGE_LOOP('',(#189,#190,#191,#192));
#136=AXIS2_PLACEMENT_3D('',#193,#194,#195);
#137=EDGE_LOOP('',(#196,#197,#198,#199));
#138=AXIS2_PLACEMENT_3D('',#200,#201,#202);
#139=EDGE_LOOP('',(#203,#204,#205,#206));
#140=AXIS2_PLACEMENT_3D('',#207,#208,#209);
#141=EDGE_LOOP('',(#210,#211,#212,#213));
#142=AXIS2_PLACEMENT_3D('',#214,#215,#216);
#143=EDGE_LOOP('',(#217,#218,#219,#220));
#144=AXIS2_PLACEMENT_3D('',#221,#222,#223);
#145=EDGE_LOOP('',(#224,#225,#226,#227));
#146=AXIS2_PLACEMENT_3D('',#228,#229,#230);
#147=EDGE_LOOP('',(#231,#232,#233,#234));
#148=AXIS2_PLACEMENT_3D('',#235,#236,#237);
#149=EDGE_LOOP('',(#238,#239,#240,#241));
#150=AXIS2_PLACEMENT_3D('',#242,#243,#244);
#151=EDGE_LOOP('',(#245,#246,#247,#248));
#152=AXIS2_PLACEMENT_3D('',#249,#250,#251);
#153=EDGE_LOOP('',(#252,#253,#254,#255));
#154=AXIS2_PLACEMENT_3D('',#256,#257,#258);
#155=EDGE_LOOP('',(#259,#260,#261,#262));
#156=AXIS2_PLACEMENT_3D('',#263,#264,#265);
#157=EDGE_LOOP('',(#266,#267,#268,#269));
#158=AXIS2_PLACEMENT_3D('',#270,#271,#272);
#159=EDGE_LOOP('',(#273,#274,#275,#276));
#160=AXIS2_PLACEMENT_3D('',#277,#278,#279);
#161=EDGE_LOOP('',(#280,#281,#282,#283));
#162=AXIS2_PLACEMENT_3D('',#284,#285,#286);
#163=EDGE_LOOP('',(#287,#288,#289,#290));
#164=AXIS2_PLACEMENT_3D('',#291,#292,#293);
#165=EDGE_LOOP('',(#294,#295,#296,#297));
#166=AXIS2_PLACEMENT_3D('',#298,#299,#300);
#167=EDGE_LOOP('',(#301,#302,#303,#304,#305,#306,#307,#308));
#168=EDGE_LOOP('',(#309,#310,#311,#312,#313,#314,#315,#316));
#169=AXIS2_PLACEMENT_3D('',#317,#318,#319);
#170=ORIENTED_EDGE('',*,*,#320,.F.);
#171=ORIENTED_EDGE('',*,*,#321,.F.);
#172=ORIENTED_EDGE('',*,*,#322,.F.);
#173=ORIENTED_EDGE('',*,*,#323,.F.);
#174=ORIENTED_EDGE('',*,*,#324,.F.);
#175=ORIENTED_EDGE('',*,*,#325,.F.);
#176=ORIENTED_EDGE('',*,*,#326,.F.);
#177=ORIENTED_EDGE('',*,*,#327,.F.);
#178=ORIENTED_EDGE('',*,*,#328,.F.);
#179=ORIENTED_EDGE('',*,*,#329,.F.);
#180=ORIENTED_EDGE('',*,*,#330,.F.);
#181=ORIENTED_EDGE('',*,*,#331,.F.);
#182=ORIENTED_EDGE('',*,*,#332,.F.);
#183=ORIENTED_EDGE('',*,*,#333,.F.);
#184=ORIENTED_EDGE('',*,*,#334,.F.);
#185=ORIENTED_EDGE('',*,*,#335,.F.);
#186=CARTESIAN_POINT('',(112.2,140.0,80.0));
#187=DIRECTION('',(0.0,0.0,1.0));
#188=DIRECTION('',(1.0,0.0,0.0));
#189=ORIENTED_EDGE('',*,*,#330,.T.);
#190=ORIENTED_EDGE('',*,*,#336,.T.);
#191=ORIENTED_EDGE('',*,*,#337,.T.);
#192=ORIENTED_EDGE('',*,*,#338,.F.);
#193=CARTESIAN_POINT('',(112.2,184.5,1000.0));
#194=DIRECTION('',(-0.0,1.0,0.0));
#195=DIRECTION('',(1.0,0.0,0.0));
#196=ORIENTED_EDGE('',*,*,#329,.T.);
#197=ORIENTED_EDGE('',*,*,#339,.T.);
#198=ORIENTED_EDGE('',*,*,#340,.T.);
#199=ORIENTED_EDGE('',*,*,#336,.F.);
#200=CARTESIAN_POINT('',(203.2,164.5,1000.0));
#201=DIRECTION('',(0.0,0.0,-1.0));
#202=DIRECTION('',(1.0,0.0,0.0));
#203=ORIENTED_EDGE('',*,*,#328,.T.);
#204=ORIENTED_EDGE('',*,*,#341,.T.);
#205=ORIENTED_EDGE('',*,*,#342,.T.);
#206=ORIENTED_EDGE('',*,*,#339,.F.);
#207=CARTESIAN_POINT('',(223.2,140.0,1000.0));
#208=DIRECTION('',(1.0,0.0,0.0));
#209=DIRECTION('',(0.0,-1.0,0.0));
#210=ORIENTED_EDGE('',*,*,#335,.T.);
#211=ORIENTED_EDGE('',*,*,#343,.T.);
#212=ORIENTED_EDGE('',*,*,#344,.T.);
#213=ORIENTED_EDGE('',*,*,#341,.F.);
#214=CARTESIAN_POINT('',(203.2,115.5,1000.0));
#215=DIRECTION('',(0.0,0.0,-1.0));
#216=DIRECTION('',(1.0,0.0,0.0));
#217=ORIENTED_EDGE('',*,*,#322,.T.);
#218=ORIENTED_EDGE('',*,*,#345,.T.);
#219=ORIENTED_EDGE('',*,*,#346,.T.);
#220=ORIENTED_EDGE('',*,*,#347,.F.);
#221=CARTESIAN_POINT('',(3.39999999999998,140.0,1000.0));
#222=DIRECTION('',(1.0,0.0,0.0));
#223=DIRECTION('',(0.0,-1.0,0.0));
#224=ORIENTED_EDGE('',*,*,#321,.T.);
#225=ORIENTED_EDGE('',*,*,#348,.T.);
#226=ORIENTED_EDGE('',*,*,#349,.T.);
#227=ORIENTED_EDGE('',*,*,#345,.F.);
#228=CARTESIAN_POINT('',(21.2,115.5,1000.0));
#229=DIRECTION('',(0.0,0.0,-1.0));
#230=DIRECTION('',(1.0,0.0,0.0));
#231=ORIENTED_EDGE('',*,*,#320,.T.);
#232=ORIENTED_EDGE('',*,*,#350,.T.);
#233=ORIENTED_EDGE('',*,*,#351,.T.);
#234=ORIENTED_EDGE('',*,*,#348,.F.);
#235=CARTESIAN_POINT('',(112.2,97.7,1000.0));
#236=DIRECTION('',(-0.0,1.0,0.0));
#237=DIRECTION('',(1.0,0.0,0.0));
#238=ORIENTED_EDGE('',*,*,#327,.T.);
#239=ORIENTED_EDGE('',*,*,#352,.T.);
#240=ORIENTED_EDGE('',*,*,#353,.T.);
#241=ORIENTED_EDGE('',*,*,#350,.F.);
#242=CARTESIAN_POINT('',(203.2,115.5,1000.0));
#243=DIRECTION('',(0.0,0.0,-1.0));
#244=DIRECTION('',(1.0,0.0,0.0));
#245=ORIENTED_EDGE('',*,*,#331,.T.);
#246=ORIENTED_EDGE('',*,*,#338,.T.);
#247=ORIENTED_EDGE('',*,*,#354,.T.);
#248=ORIENTED_EDGE('',*,*,#355,.F.);
#249=CARTESIAN_POINT('',(21.2,164.5,1000.0));
#250=DIRECTION('',(0.0,0.0,-1.0));
#251=DIRECTION('',(1.0,0.0,0.0));
#252=ORIENTED_EDGE('',*,*,#332,.T.);
#253=ORIENTED_EDGE('',*,*,#355,.T.);
#254=ORIENTED_EDGE('',*,*,#356,.T.);
#255=ORIENTED_EDGE('',*,*,#357,.F.);
#256=CARTESIAN_POINT('',(1.19999999999999,140.0,1000.0));
#257=DIRECTION('',(-1.0,0.0,0.0));
#258=DIRECTION('',(0.0,1.0,0.0));
#259=ORIENTED_EDGE('',*,*,#333,.T.);
#260=ORIENTED_EDGE('',*,*,#357,.T.);
#261=ORIENTED_EDGE('',*,*,#358,.T.);
#262=ORIENTED_EDGE('',*,*,#359,.F.);
#263=CARTESIAN_POINT('',(21.2,115.5,1000.0));
#264=DIRECTION('',(0.0,0.0,-1.0));
#265=DIRECTION('',(1.0,0.0,0.0));
#266=ORIENTED_EDGE('',*,*,#334,.T.);
#267=ORIENTED_EDGE('',*,*,#359,.T.);
#268=ORIENTED_EDGE('',*,*,#360,.T.);
#269=ORIENTED_EDGE('',*,*,#343,.F.);
#270=CARTESIAN_POINT('',(112.2,95.5,1000.0));
#271=DIRECTION('',(0.0,-1.0,-0.0));
#272=DIRECTION('',(-1.0,0.0,-0.0));
#273=ORIENTED_EDGE('',*,*,#326,.T.);
#274=ORIENTED_EDGE('',*,*,#361,.T.);
#275=ORIENTED_EDGE('',*,*,#362,.T.);
#276=ORIENTED_EDGE('',*,*,#352,.F.);
#277=CARTESIAN_POINT('',(221.0,140.0,1000.0));
#278=DIRECTION('',(-1.0,0.0,0.0));
#279=DIRECTION('',(0.0,1.0,0.0));
#280=ORIENTED_EDGE('',*,*,#323,.T.);
#281=ORIENTED_EDGE('',*,*,#347,.T.);
#282=ORIENTED_EDGE('',*,*,#363,.T.);
#283=ORIENTED_EDGE('',*,*,#364,.F.);
#284=CARTESIAN_POINT('',(21.2,164.5,1000.0));
#285=DIRECTION('',(0.0,0.0,-1.0));
#286=DIRECTION('',(1.0,0.0,0.0));
#287=ORIENTED_EDGE('',*,*,#324,.T.);
#288=ORIENTED_EDGE('',*,*,#364,.T.);
#289=ORIENTED_EDGE('',*,*,#365,.T.);
#290=ORIENTED_EDGE('',*,*,#366,.F.);
#291=CARTESIAN_POINT('',(112.2,182.3,1000.0));
#292=DIRECTION('',(-0.0,-1.0,-0.0));
#293=DIRECTION('',(-1.0,0.0,0.0));
#294=ORIENTED_EDGE('',*,*,#325,.T.);
#295=ORIENTED_EDGE('',*,*,#366,.T.);
#296=ORIENTED_EDGE('',*,*,#367,.T.);
#297=ORIENTED_EDGE('',*,*,#361,.F.);
#298=CARTESIAN_POINT('',(203.2,164.5,1000.0));
#299=DIRECTION('',(0.0,0.0,-1.0));
#300=DIRECTION('',(1.0,0.0,0.0));
#301=ORIENTED_EDGE('',*,*,#362,.F.);
#302=ORIENTED_EDGE('',*,*,#367,.F.);
#303=ORIENTED_EDGE('',*,*,#365,.F.);
#304=ORIENTED_EDGE('',*,*,#363,.F.);
#305=ORIENTED_EDGE('',*,*,#346,.F.);
#306=ORIENTED_EDGE('',*,*,#349,.F.);
#307=ORIENTED_EDGE('',*,*,#351,.F.);
#308=ORIENTED_EDGE('',*,*,#353,.F.);
#309=ORIENTED_EDGE('',*,*,#340,.F.);
#310=ORIENTED_EDGE('',*,*,#342,.F.);
#311=ORIENTED_EDGE('',*,*,#344,.F.);
#312=ORIENTED_EDGE('',*,*,#360,.F.);
#313=ORIENTED_EDGE('',*,*,#358,.F.);
#314=ORIENTED_EDGE('',*,*,#356,.F.);
#315=ORIENTED_EDGE('',*,*,#354,.F.);
#316=ORIENTED_EDGE('',*,*,#337,.F.);
#317=CARTESIAN_POINT('',(112.2,140.0,0.0));
#318=DIRECTION('',(0.0,0.0,1.0));
#319=DIRECTION('',(1.0,0.0,0.0));
#320=EDGE_CURVE('',#368,#369,#370,.T.);
#321=EDGE_CURVE('',#371,#368,#372,.T.);
#322=EDGE_CURVE('',#373,#371,#374,.T.);
#323=EDGE_CURVE('',#375,#373,#376,.T.);
#324=EDGE_CURVE('',#377,#375,#378,.T.);
#325=EDGE_CURVE('',#379,#377,#380,.T.);
#326=EDGE_CURVE('',#381,#379,#382,.T.);
#327=EDGE_CURVE('',#369,#381,#383,.T.);
#328=EDGE_CURVE('',#384,#385,#386,.T.);
#329=EDGE_CURVE('',#387,#384,#388,.T.);
#330=EDGE_CURVE('',#389,#387,#390,.T.);
#331=EDGE_CURVE('',#391,#389,#392,.T.);
#332=EDGE_CURVE('',#393,#391,#394,.T.);
#333=EDGE_CURVE('',#395,#393,#396,.T.);
#334=EDGE_CURVE('',#397,#395,#398,.T.);
#335=EDGE_CURVE('',#385,#397,#399,.T.);
#336=EDGE_CURVE('',#387,#400,#401,.T.);
#337=EDGE_CURVE('',#400,#402,#403,.T.);
#338=EDGE_CURVE('',#389,#402,#404,.T.);
#339=EDGE_CURVE('',#384,#405,#406,.T.);
#340=EDGE_CURVE('',#405,#400,#407,.T.);
#341=EDGE_CURVE('',#385,#408,#409,.T.);
#342=EDGE_CURVE('',#408,#405,#410,.T.);
#343=EDGE_CURVE('',#397,#411,#412,.T.);
#344=EDGE_CURVE('',#411,#408,#413,.T.);
#345=EDGE_CURVE('',#371,#414,#415,.T.);
#346=EDGE_CURVE('',#414,#416,#417,.T.);
#347=EDGE_CURVE('',#373,#416,#418,.T.);
#348=EDGE_CURVE('',#368,#419,#420,.T.);
#349=EDGE_CURVE('',#419,#414,#421,.T.);
#350=EDGE_CURVE('',#369,#422,#423,.T.);
#351=EDGE_CURVE('',#422,#419,#424,.T.);
#352=EDGE_CURVE('',#381,#425,#426,.T.);
#353=EDGE_CURVE('',#425,#422,#427,.T.);
#354=EDGE_CURVE('',#402,#428,#429,.T.);
#355=EDGE_CURVE('',#391,#428,#430,.T.);
#356=EDGE_CURVE('',#428,#431,#432,.T.);
#357=EDGE_CURVE('',#393,#431,#433,.T.);
#358=EDGE_CURVE('',#431,#434,#435,.T.);
#359=EDGE_CURVE('',#395,#434,#436,.T.);
#360=EDGE_CURVE('',#434,#411,#437,.T.);
#361=EDGE_CURVE('',#379,#438,#439,.T.);
#362=EDGE_CURVE('',#438,#425,#440,.T.);
#363=EDGE_CURVE('',#416,#441,#442,.T.);
#364=EDGE_CURVE('',#375,#441,#443,.T.);
#365=EDGE_CURVE('',#441,#444,#445,.T.);
#366=EDGE_CURVE('',#377,#444,#446,.T.);
#367=EDGE_CURVE('',#444,#438,#447,.T.);
#368=VERTEX_POINT('',#448);
#369=VERTEX_POINT('',#449);
#370=LINE('',#450,#451);
#371=VERTEX_POINT('',#452);
#372=CIRCLE('',#453,17.8);
#373=VERTEX_POINT('',#454);
#374=LINE('',#455,#456);
#375=VERTEX_POINT('',#457);
#376=CIRCLE('',#458,17.8);
#377=VERTEX_POINT('',#459);
#378=LINE('',#460,#461);
#379=VERTEX_POINT('',#462);
#380=CIRCLE('',#463,17.8);
#381=VERTEX_POINT('',#464);
#382=LINE('',#465,#466);
#383=CIRCLE('',#467,17.8);
#384=VERTEX_POINT('',#468);
#385=VERTEX_POINT('',#469);
#386=LINE('',#470,#471);
#387=VERTEX_POINT('',#472);
#388=CIRCLE('',#473,20.0);
#389=VERTEX_POINT('',#474);
#390=LINE('',#475,#476);
#391=VERTEX_POINT('',#477);
#392=CIRCLE('',#478,20.0);
#393=VERTEX_POINT('',#479);
#394=LINE('',#480,#481);
#395=VERTEX_POINT('',#482);
#396=CIRCLE('',#483,20.0);
#397=VERTEX_POINT('',#484);
#398=LINE('',#485,#486);
#399=CIRCLE('',#487,20.0);
#400=VERTEX_POINT('',#488);
#401=LINE('',#489,#490);
#402=VERTEX_POINT('',#491);
#403=LINE('',#492,#493);
#404=LINE('',#494,#495);
#405=VERTEX_POINT('',#496);
#406=LINE('',#497,#498);
#407=CIRCLE('',#499,20.0);
#408=VERTEX_POINT('',#500);
#409=LINE('',#501,#502);
#410=LINE('',#503,#504);
#411=VERTEX_POINT('',#505);
#412=LINE('',#506,#507);
#413=CIRCLE('',#508,20.0);
#414=VERTEX_POINT('',#509);
#415=LINE('',#510,#511);
#416=VERTEX_POINT('',#512);
#417=LINE('',#513,#514);
#418=LINE('',#515,#516);
#419=VERTEX_POINT('',#517);
#420=LINE('',#518,#519);
#421=CIRCLE('',#520,17.8);
#422=VERTEX_POINT('',#521);
#423=LINE('',#522,#523);
#424=LINE('',#524,#525);
#425=VERTEX_POINT('',#526);
#426=LINE('',#527,#528);
#427=CIRCLE('',#529,17.8);
#428=VERTEX_POINT('',#530);
#429=CIRCLE('',#531,20.0);
#430=LINE('',#532,#533);
#431=VERTEX_POINT('',#534);
#432=LINE('',#535,#536);
#433=LINE('',#537,#538);
#434=VERTEX_POINT('',#539);
#435=CIRCLE('',#540,20.0);
#436=LINE('',#541,#542);
#437=LINE('',#543,#544);
#438=VERTEX_POINT('',#545);
#439=LINE('',#546,#547);
#440=LINE('',#548,#549);
#441=VERTEX_POINT('',#550);
#442=CIRCLE('',#551,17.8);
#443=LINE('',#552,#553);
#444=VERTEX_POINT('',#554);
#445=LINE('',#555,#556);
#446=LINE('',#557,#558);
#447=CIRCLE('',#559,17.8);
#448=CARTESIAN_POINT('',(21.2,97.7,80.0));
#449=CARTESIAN_POINT('',(203.2,97.7,80.0));
#450=CARTESIAN_POINT('',(112.2,97.7,80.0));
#451=VECTOR('',#560,1.0);
#452=CARTESIAN_POINT('',(3.39999999999999,115.5,80.0));
#453=AXIS2_PLACEMENT_3D('',#561,#562,#563);
#454=CARTESIAN_POINT('',(3.4,164.5,80.0));
#455=CARTESIAN_POINT('',(3.39999999999998,140.0,80.0));
#456=VECTOR('',#564,1.0);
#457=CARTESIAN_POINT('',(21.2,182.3,80.0));
#458=AXIS2_PLACEMENT_3D('',#565,#566,#567);
#459=CARTESIAN_POINT('',(203.2,182.3,80.0));
#460=CARTESIAN_POINT('',(112.2,182.3,80.0));
#461=VECTOR('',#568,1.0);
#462=CARTESIAN_POINT('',(221.0,164.5,80.0));
#463=AXIS2_PLACEMENT_3D('',#569,#570,#571);
#464=CARTESIAN_POINT('',(221.0,115.5,80.0));
#465=CARTESIAN_POINT('',(221.0,140.0,80.0));
#466=VECTOR('',#572,1.0);
#467=AXIS2_PLACEMENT_3D('',#573,#574,#575);
#468=CARTESIAN_POINT('',(223.2,164.5,80.0));
#469=CARTESIAN_POINT('',(223.2,115.5,80.0));
#470=CARTESIAN_POINT('',(223.2,140.0,80.0));
#471=VECTOR('',#576,1.0);
#472=CARTESIAN_POINT('',(203.2,184.5,80.0));
#473=AXIS2_PLACEMENT_3D('',#577,#578,#579);
#474=CARTESIAN_POINT('',(21.2,184.5,80.0));
#475=CARTESIAN_POINT('',(112.2,184.5,80.0));
#476=VECTOR('',#580,1.0);
#477=CARTESIAN_POINT('',(1.20000000000001,164.5,80.0));
#478=AXIS2_PLACEMENT_3D('',#581,#582,#583);
#479=CARTESIAN_POINT('',(1.19999999999999,115.5,80.0));
#480=CARTESIAN_POINT('',(1.19999999999999,140.0,80.0));
#481=VECTOR('',#584,1.0);
#482=CARTESIAN_POINT('',(21.2,95.5,80.0));
#483=AXIS2_PLACEMENT_3D('',#585,#586,#587);
#484=CARTESIAN_POINT('',(203.2,95.5,80.0));
#485=CARTESIAN_POINT('',(112.2,95.5,80.0));
#486=VECTOR('',#588,1.0);
#487=AXIS2_PLACEMENT_3D('',#589,#590,#591);
#488=CARTESIAN_POINT('',(203.2,184.5,0.0));
#489=CARTESIAN_POINT('',(203.2,184.5,1000.0));
#490=VECTOR('',#592,1.0);
#491=CARTESIAN_POINT('',(21.2,184.5,0.0));
#492=CARTESIAN_POINT('',(203.2,184.5,0.0));
#493=VECTOR('',#593,1.0);
#494=CARTESIAN_POINT('',(21.2,184.5,1000.0));
#495=VECTOR('',#594,1.0);
#496=CARTESIAN_POINT('',(223.2,164.5,0.0));
#497=CARTESIAN_POINT('',(223.2,164.5,1000.0));
#498=VECTOR('',#595,1.0);
#499=AXIS2_PLACEMENT_3D('',#596,#597,#598);
#500=CARTESIAN_POINT('',(223.2,115.5,0.0));
#501=CARTESIAN_POINT('',(223.2,115.5,1000.0));
#502=VECTOR('',#599,1.0);
#503=CARTESIAN_POINT('',(223.2,115.5,0.0));
#504=VECTOR('',#600,1.0);
#505=CARTESIAN_POINT('',(203.2,95.5,0.0));
#506=CARTESIAN_POINT('',(203.2,95.5,1000.0));
#507=VECTOR('',#601,1.0);
#508=AXIS2_PLACEMENT_3D('',#602,#603,#604);
#509=CARTESIAN_POINT('',(3.39999999999999,115.5,0.0));
#510=CARTESIAN_POINT('',(3.39999999999999,115.5,1000.0));
#511=VECTOR('',#605,1.0);
#512=CARTESIAN_POINT('',(3.39999999999999,164.5,0.0));
#513=CARTESIAN_POINT('',(3.39999999999998,164.5,0.0));
#514=VECTOR('',#606,1.0);
#515=CARTESIAN_POINT('',(3.39999999999999,164.5,1000.0));
#516=VECTOR('',#607,1.0);
#517=CARTESIAN_POINT('',(21.2,97.7,0.0));
#518=CARTESIAN_POINT('',(21.2,97.7,1000.0));
#519=VECTOR('',#608,1.0);
#520=AXIS2_PLACEMENT_3D('',#609,#610,#611);
#521=CARTESIAN_POINT('',(203.2,97.7,0.0));
#522=CARTESIAN_POINT('',(203.2,97.7,1000.0));
#523=VECTOR('',#612,1.0);
#524=CARTESIAN_POINT('',(21.2,97.7,0.0));
#525=VECTOR('',#613,1.0);
#526=CARTESIAN_POINT('',(221.0,115.5,0.0));
#527=CARTESIAN_POINT('',(221.0,115.5,1000.0));
#528=VECTOR('',#614,1.0);
#529=AXIS2_PLACEMENT_3D('',#615,#616,#617);
#530=CARTESIAN_POINT('',(1.2,164.5,0.0));
#531=AXIS2_PLACEMENT_3D('',#618,#619,#620);
#532=CARTESIAN_POINT('',(1.2,164.5,1000.0));
#533=VECTOR('',#621,1.0);
#534=CARTESIAN_POINT('',(1.19999999999999,115.5,0.0));
#535=CARTESIAN_POINT('',(1.19999999999999,164.5,0.0));
#536=VECTOR('',#622,1.0);
#537=CARTESIAN_POINT('',(1.19999999999999,115.5,1000.0));
#538=VECTOR('',#623,1.0);
#539=CARTESIAN_POINT('',(21.2,95.5,0.0));
#540=AXIS2_PLACEMENT_3D('',#624,#625,#626);
#541=CARTESIAN_POINT('',(21.2,95.5,1000.0));
#542=VECTOR('',#627,1.0);
#543=CARTESIAN_POINT('',(21.2,95.5,0.0));
#544=VECTOR('',#628,1.0);
#545=CARTESIAN_POINT('',(221.0,164.5,0.0));
#546=CARTESIAN_POINT('',(221.0,164.5,1000.0));
#547=VECTOR('',#629,1.0);
#548=CARTESIAN_POINT('',(221.0,115.5,0.0));
#549=VECTOR('',#630,1.0);
#550=CARTESIAN_POINT('',(21.2,182.3,0.0));
#551=AXIS2_PLACEMENT_3D('',#631,#632,#633);
#552=CARTESIAN_POINT('',(21.2,182.3,1000.0));
#553=VECTOR('',#634,1.0);
#554=CARTESIAN_POINT('',(203.2,182.3,0.0));
#555=CARTESIAN_POINT('',(203.2,182.3,0.0));
#556=VECTOR('',#635,1.0);
#557=CARTESIAN_POINT('',(203.2,182.3,1000.0));
#558=VECTOR('',#636,1.0);
#559=AXIS2_PLACEMENT_3D('',#637,#638,#639);
#560=DIRECTION('',(1.0,0.0,0.0));
#561=CARTESIAN_POINT('',(21.2,115.5,80.0));
#562=DIRECTION('',(0.0,0.0,1.0));
#563=DIRECTION('',(1.0,0.0,0.0));
#564=DIRECTION('',(0.0,-1.0,0.0));
#565=CARTESIAN_POINT('',(21.2,164.5,80.0));
#566=DIRECTION('',(0.0,0.0,1.0));
#567=DIRECTION('',(1.0,0.0,0.0));
#568=DIRECTION('',(-1.0,0.0,0.0));
#569=CARTESIAN_POINT('',(203.2,164.5,80.0));
#570=DIRECTION('',(0.0,0.0,1.0));
#571=DIRECTION('',(1.0,0.0,0.0));
#572=DIRECTION('',(0.0,1.0,0.0));
#573=CARTESIAN_POINT('',(203.2,115.5,80.0));
#574=DIRECTION('',(0.0,0.0,1.0));
#575=DIRECTION('',(1.0,0.0,0.0));
#576=DIRECTION('',(0.0,-1.0,0.0));
#577=CARTESIAN_POINT('',(203.2,164.5,80.0));
#578=DIRECTION('',(0.0,0.0,-1.0));
#579=DIRECTION('',(1.0,0.0,0.0));
#580=DIRECTION('',(1.0,0.0,0.0));
#581=CARTESIAN_POINT('',(21.2,164.5,80.0));
#582=DIRECTION('',(0.0,0.0,-1.0));
#583=DIRECTION('',(1.0,0.0,0.0));
#584=DIRECTION('',(0.0,1.0,0.0));
#585=CARTESIAN_POINT('',(21.2,115.5,80.0));
#586=DIRECTION('',(0.0,0.0,-1.0));
#587=DIRECTION('',(1.0,0.0,0.0));
#588=DIRECTION('',(-1.0,0.0,0.0));
#589=CARTESIAN_POINT('',(203.2,115.5,80.0));
#590=DIRECTION('',(0.0,0.0,-1.0));
#591=DIRECTION('',(1.0,0.0,0.0));
#592=DIRECTION('',(0.0,0.0,-1.0));
#593=DIRECTION('',(-1.0,0.0,0.0));
#594=DIRECTION('',(0.0,0.0,-1.0));
#595=DIRECTION('',(0.0,0.0,-1.0));
#596=CARTESIAN_POINT('',(203.2,164.5,0.0));
#597=DIRECTION('',(0.0,0.0,1.0));
#598=DIRECTION('',(1.0,0.0,0.0));
#599=DIRECTION('',(0.0,0.0,-1.0));
#600=DIRECTION('',(0.0,1.0,0.0));
#601=DIRECTION('',(0.0,0.0,-1.0));
#602=CARTESIAN_POINT('',(203.2,115.5,0.0));
#603=DIRECTION('',(0.0,0.0,1.0));
#604=DIRECTION('',(1.0,0.0,0.0));
#605=DIRECTION('',(0.0,0.0,-1.0));
#606=DIRECTION('',(0.0,1.0,0.0));
#607=DIRECTION('',(0.0,0.0,-1.0));
#608=DIRECTION('',(0.0,0.0,-1.0));
#609=CARTESIAN_POINT('',(21.2,115.5,0.0));
#610=DIRECTION('',(0.0,0.0,-1.0));
#611=DIRECTION('',(1.0,0.0,0.0));
#612=DIRECTION('',(0.0,0.0,-1.0));
#613=DIRECTION('',(-1.0,-0.0,-0.0));
#614=DIRECTION('',(0.0,0.0,-1.0));
#615=CARTESIAN_POINT('',(203.2,115.5,0.0));
#616=DIRECTION('',(0.0,0.0,-1.0));
#617=DIRECTION('',(1.0,0.0,0.0));
#618=CARTESIAN_POINT('',(21.2,164.5,0.0));
#619=DIRECTION('',(0.0,0.0,1.0));
#620=DIRECTION('',(1.0,0.0,0.0));
#621=DIRECTION('',(0.0,0.0,-1.0));
#622=DIRECTION('',(0.0,-1.0,0.0));
#623=DIRECTION('',(0.0,0.0,-1.0));
#624=CARTESIAN_POINT('',(21.2,115.5,0.0));
#625=DIRECTION('',(0.0,0.0,1.0));
#626=DIRECTION('',(1.0,0.0,0.0));
#627=DIRECTION('',(0.0,0.0,-1.0));
#628=DIRECTION('',(1.0,0.0,0.0));
#629=DIRECTION('',(0.0,0.0,-1.0));
#630=DIRECTION('',(-0.0,-1.0,-0.0));
#631=CARTESIAN_POINT('',(21.2,164.5,0.0));
#632=DIRECTION('',(0.0,0.0,-1.0));
#633=DIRECTION('',(1.0,0.0,0.0));
#634=DIRECTION('',(0.0,0.0,-1.0));
#635=DIRECTION('',(1.0,0.0,0.0));
#636=DIRECTION('',(0.0,0.0,-1.0));
#637=CARTESIAN_POINT('',(203.2,164.5,0.0));
#638=DIRECTION('',(0.0,0.0,-1.0));
#639=DIRECTION('',(1.0,0.0,0.0));
ENDSEC;
END-ISO-10303-21;
