ISO-10303-21;
HEADER;
FILE_DESCRIPTION(('STEP AP203'),'1');
FILE_NAME('4021127_V T-VBS 125 Rohrverbinder round.STP','2019-07-31T10:53:47',(' '),(' '),'Spatial InterOp 3D',' ',' ');
FILE_SCHEMA(('CONFIG_CONTROL_DESIGN'));
ENDSEC;
DATA;
#1=DESIGN_CONTEXT('',#27,'design');
#2=APPLICATION_PROTOCOL_DEFINITION('INTERNATIONAL STANDARD','config_control_design',1994,#27);
#3=PRODUCT_CATEGORY_RELATIONSHIP('NONE','NONE',#28,#29);
#4=DATE_AND_TIME(#30,#31);
#5=DATE_TIME_ROLE('creation_date');
#6=DATE_TIME_ROLE('classification_date');
#7=PERSON_AND_ORGANIZATION_ROLE('creator');
#8=PERSON_AND_ORGANIZATION_ROLE('design_supplier');
#9=PERSON_AND_ORGANIZATION_ROLE('classification_officer');
#10=PERSON_AND_ORGANIZATION_ROLE('design_owner');
#11=APPROVAL_PERSON_ORGANIZATION(#32,#33,#34);
#12=APPROVAL_DATE_TIME(#4,#33);
#13=CC_DESIGN_APPROVAL(#33,(#35,#36,#37));
#14=CC_DESIGN_DATE_AND_TIME_ASSIGNMENT(#4,#5,(#37));
#15=CC_DESIGN_DATE_AND_TIME_ASSIGNMENT(#4,#6,(#35));
#16=CC_DESIGN_PERSON_AND_ORGANIZATION_ASSIGNMENT(#32,#10,(#38));
#17=CC_DESIGN_PERSON_AND_ORGANIZATION_ASSIGNMENT(#32,#7,(#37));
#18=CC_DESIGN_PERSON_AND_ORGANIZATION_ASSIGNMENT(#32,#7,(#36));
#19=CC_DESIGN_PERSON_AND_ORGANIZATION_ASSIGNMENT(#32,#8,(#36));
#20=CC_DESIGN_SECURITY_CLASSIFICATION(#35,(#36));
#21=CC_DESIGN_PERSON_AND_ORGANIZATION_ASSIGNMENT(#32,#9,(#35));
#22=SHAPE_DEFINITION_REPRESENTATION(#39,#40);
#23= (GEOMETRIC_REPRESENTATION_CONTEXT(3)GLOBAL_UNCERTAINTY_ASSIGNED_CONTEXT((#43))GLOBAL_UNIT_ASSIGNED_CONTEXT((#45,#46,#47))REPRESENTATION_CONTEXT('NONE','WORKSPACE'));
#27=APPLICATION_CONTEXT('CONFIGURATION CONTROLLED 3D DESIGNS OF MECHANICAL PARTS AND ASSEMBLIES');
#28=PRODUCT_CATEGORY('part','NONE');
#29=PRODUCT_RELATED_PRODUCT_CATEGORY('detail',' ',(#38));
#30=CALENDAR_DATE(2019,31,6);
#31=LOCAL_TIME(12,53,47.0,#49);
#32=PERSON_AND_ORGANIZATION(#50,#51);
#33=APPROVAL(#52,'SOLID MODEL');
#34=APPROVAL_ROLE('APPROVED');
#35=SECURITY_CLASSIFICATION('','',#53);
#36=PRODUCT_DEFINITION_FORMATION_WITH_SPECIFIED_SOURCE(' ','NONE',#38,.NOT_KNOWN.);
#37=PRODUCT_DEFINITION('','NONE',#36,#1);
#38=PRODUCT('1','','PART--DESC',(#54));
#39=PRODUCT_DEFINITION_SHAPE('NONE','NONE',#37);
#40=ADVANCED_BREP_SHAPE_REPRESENTATION('1',(#55,#56),#23);
#43=UNCERTAINTY_MEASURE_WITH_UNIT(LENGTH_MEASURE(1.0E-06),#45,'','');
#45= (CONVERSION_BASED_UNIT('MILLIMETRE',#59)LENGTH_UNIT()NAMED_UNIT(#62));
#46= (NAMED_UNIT(#64)PLANE_ANGLE_UNIT()SI_UNIT($,.RADIAN.));
#47= (NAMED_UNIT(#64)SOLID_ANGLE_UNIT()SI_UNIT($,.STERADIAN.));
#49=COORDINATED_UNIVERSAL_TIME_OFFSET(1,0,.AHEAD.);
#50=PERSON('','UNSPECIFIED',$,$,$,$);
#51=ORGANIZATION('UNSPECIFIED','UNSPECIFIED','UNSPECIFIED');
#52=APPROVAL_STATUS('approved');
#53=SECURITY_CLASSIFICATION_LEVEL('unclassified');
#54=MECHANICAL_CONTEXT('',#27,'mechanical');
#55=MANIFOLD_SOLID_BREP('1',#70);
#56=AXIS2_PLACEMENT_3D('',#71,#72,#73);
#59=LENGTH_MEASURE_WITH_UNIT(LENGTH_MEASURE(1.0),#74);
#62=DIMENSIONAL_EXPONENTS(1.0,0.0,0.0,0.0,0.0,0.0,0.0);
#64=DIMENSIONAL_EXPONENTS(0.0,0.0,0.0,0.0,0.0,0.0,0.0);
#70=CLOSED_SHELL('',(#75,#76,#77,#78,#79,#80));
#71=CARTESIAN_POINT('',(0.0,0.0,0.0));
#72=DIRECTION('',(0.0,0.0,1.0));
#73=DIRECTION('',(1.0,0.0,0.0));
#74= (NAMED_UNIT(#62)LENGTH_UNIT()SI_UNIT(.MILLI.,.METRE.));
#75=ADVANCED_FACE('',(#82),#83,.F.);
#76=ADVANCED_FACE('',(#84),#85,.T.);
#77=ADVANCED_FACE('',(#86),#87,.T.);
#78=ADVANCED_FACE('',(#88),#89,.F.);
#79=ADVANCED_FACE('',(#90,#91),#92,.T.);
#80=ADVANCED_FACE('',(#93,#94),#95,.F.);
#82=FACE_OUTER_BOUND('',#96,.T.);
#83=CYLINDRICAL_SURFACE('',#97,60.7);
#84=FACE_OUTER_BOUND('',#98,.T.);
#85=CYLINDRICAL_SURFACE('',#99,62.5);
#86=FACE_OUTER_BOUND('',#100,.T.);
#87=CYLINDRICAL_SURFACE('',#101,62.5);
#88=FACE_OUTER_BOUND('',#102,.T.);
#89=CYLINDRICAL_SURFACE('',#103,60.7);
#90=FACE_BOUND('',#104,.T.);
#91=FACE_OUTER_BOUND('',#105,.T.);
#92=PLANE('',#106);
#93=FACE_BOUND('',#107,.T.);
#94=FACE_OUTER_BOUND('',#108,.T.);
#95=PLANE('',#109);
#96=EDGE_LOOP('',(#110,#111,#112,#113));
#97=AXIS2_PLACEMENT_3D('',#114,#115,#116);
#98=EDGE_LOOP('',(#117,#118,#119,#120));
#99=AXIS2_PLACEMENT_3D('',#121,#122,#123);
#100=EDGE_LOOP('',(#124,#125,#126,#127));
#101=AXIS2_PLACEMENT_3D('',#128,#129,#130);
#102=EDGE_LOOP('',(#131,#132,#133,#134));
#103=AXIS2_PLACEMENT_3D('',#135,#136,#137);
#104=EDGE_LOOP('',(#138,#139));
#105=EDGE_LOOP('',(#140,#141));
#106=AXIS2_PLACEMENT_3D('',#142,#143,#144);
#107=EDGE_LOOP('',(#145,#146));
#108=EDGE_LOOP('',(#147,#148));
#109=AXIS2_PLACEMENT_3D('',#149,#150,#151);
#110=ORIENTED_EDGE('',*,*,#152,.F.);
#111=ORIENTED_EDGE('',*,*,#153,.F.);
#112=ORIENTED_EDGE('',*,*,#154,.F.);
#113=ORIENTED_EDGE('',*,*,#155,.T.);
#114=CARTESIAN_POINT('',(108.2,142.3,1000.0));
#115=DIRECTION('',(0.0,0.0,-1.0));
#116=DIRECTION('',(-1.0,0.0,0.0));
#117=ORIENTED_EDGE('',*,*,#156,.F.);
#118=ORIENTED_EDGE('',*,*,#157,.T.);
#119=ORIENTED_EDGE('',*,*,#158,.F.);
#120=ORIENTED_EDGE('',*,*,#159,.T.);
#121=CARTESIAN_POINT('',(108.2,142.3,1000.0));
#122=DIRECTION('',(0.0,0.0,-1.0));
#123=DIRECTION('',(-1.0,0.0,0.0));
#124=ORIENTED_EDGE('',*,*,#156,.T.);
#125=ORIENTED_EDGE('',*,*,#160,.T.);
#126=ORIENTED_EDGE('',*,*,#158,.T.);
#127=ORIENTED_EDGE('',*,*,#161,.T.);
#128=CARTESIAN_POINT('',(108.2,142.3,1000.0));
#129=DIRECTION('',(0.0,0.0,-1.0));
#130=DIRECTION('',(-1.0,0.0,0.0));
#131=ORIENTED_EDGE('',*,*,#152,.T.);
#132=ORIENTED_EDGE('',*,*,#162,.T.);
#133=ORIENTED_EDGE('',*,*,#154,.T.);
#134=ORIENTED_EDGE('',*,*,#163,.F.);
#135=CARTESIAN_POINT('',(108.2,142.3,1000.0));
#136=DIRECTION('',(0.0,0.0,-1.0));
#137=DIRECTION('',(-1.0,0.0,0.0));
#138=ORIENTED_EDGE('',*,*,#162,.F.);
#139=ORIENTED_EDGE('',*,*,#155,.F.);
#140=ORIENTED_EDGE('',*,*,#160,.F.);
#141=ORIENTED_EDGE('',*,*,#159,.F.);
#142=CARTESIAN_POINT('',(102.598804604486,142.3,950.0));
#143=DIRECTION('',(0.0,0.0,-1.0));
#144=DIRECTION('',(-1.0,0.0,0.0));
#145=ORIENTED_EDGE('',*,*,#163,.T.);
#146=ORIENTED_EDGE('',*,*,#153,.T.);
#147=ORIENTED_EDGE('',*,*,#157,.F.);
#148=ORIENTED_EDGE('',*,*,#161,.F.);
#149=CARTESIAN_POINT('',(102.598804604486,142.3,1000.0));
#150=DIRECTION('',(0.0,0.0,-1.0));
#151=DIRECTION('',(-1.0,0.0,0.0));
#152=EDGE_CURVE('',#164,#165,#166,.T.);
#153=EDGE_CURVE('',#167,#164,#168,.T.);
#154=EDGE_CURVE('',#169,#167,#170,.T.);
#155=EDGE_CURVE('',#169,#165,#171,.T.);
#156=EDGE_CURVE('',#172,#173,#174,.T.);
#157=EDGE_CURVE('',#172,#175,#176,.T.);
#158=EDGE_CURVE('',#177,#175,#178,.T.);
#159=EDGE_CURVE('',#177,#173,#179,.T.);
#160=EDGE_CURVE('',#173,#177,#180,.T.);
#161=EDGE_CURVE('',#175,#172,#181,.T.);
#162=EDGE_CURVE('',#165,#169,#182,.T.);
#163=EDGE_CURVE('',#164,#167,#183,.T.);
#164=VERTEX_POINT('',#184);
#165=VERTEX_POINT('',#185);
#166=LINE('',#186,#187);
#167=VERTEX_POINT('',#188);
#168=CIRCLE('',#189,60.7);
#169=VERTEX_POINT('',#190);
#170=LINE('',#191,#192);
#171=CIRCLE('',#193,60.7);
#172=VERTEX_POINT('',#194);
#173=VERTEX_POINT('',#195);
#174=LINE('',#196,#197);
#175=VERTEX_POINT('',#198);
#176=CIRCLE('',#199,62.5);
#177=VERTEX_POINT('',#200);
#178=LINE('',#201,#202);
#179=CIRCLE('',#203,62.5);
#180=CIRCLE('',#204,62.5);
#181=CIRCLE('',#205,62.5);
#182=CIRCLE('',#206,60.7);
#183=CIRCLE('',#207,60.7);
#184=CARTESIAN_POINT('',(47.5,142.3,1000.0));
#185=CARTESIAN_POINT('',(47.5,142.3,950.0));
#186=CARTESIAN_POINT('',(47.5,142.3,1000.0));
#187=VECTOR('',#208,1.0);
#188=CARTESIAN_POINT('',(168.9,142.3,1000.0));
#189=AXIS2_PLACEMENT_3D('',#209,#210,#211);
#190=CARTESIAN_POINT('',(168.9,142.3,950.0));
#191=CARTESIAN_POINT('',(168.9,142.3,1000.0));
#192=VECTOR('',#212,1.0);
#193=AXIS2_PLACEMENT_3D('',#213,#214,#215);
#194=CARTESIAN_POINT('',(45.7,142.3,1000.0));
#195=CARTESIAN_POINT('',(45.7,142.3,950.0));
#196=CARTESIAN_POINT('',(45.7,142.3,1000.0));
#197=VECTOR('',#216,1.0);
#198=CARTESIAN_POINT('',(170.7,142.3,1000.0));
#199=AXIS2_PLACEMENT_3D('',#217,#218,#219);
#200=CARTESIAN_POINT('',(170.7,142.3,950.0));
#201=CARTESIAN_POINT('',(170.7,142.3,1000.0));
#202=VECTOR('',#220,1.0);
#203=AXIS2_PLACEMENT_3D('',#221,#222,#223);
#204=AXIS2_PLACEMENT_3D('',#224,#225,#226);
#205=AXIS2_PLACEMENT_3D('',#227,#228,#229);
#206=AXIS2_PLACEMENT_3D('',#230,#231,#232);
#207=AXIS2_PLACEMENT_3D('',#233,#234,#235);
#208=DIRECTION('',(0.0,-0.0,-1.0));
#209=CARTESIAN_POINT('',(108.2,142.3,1000.0));
#210=DIRECTION('',(0.0,0.0,-1.0));
#211=DIRECTION('',(-1.0,0.0,0.0));
#212=DIRECTION('',(0.0,0.0,1.0));
#213=CARTESIAN_POINT('',(108.2,142.3,950.0));
#214=DIRECTION('',(0.0,0.0,-1.0));
#215=DIRECTION('',(-1.0,0.0,0.0));
#216=DIRECTION('',(0.0,0.0,-1.0));
#217=CARTESIAN_POINT('',(108.2,142.3,1000.0));
#218=DIRECTION('',(0.0,0.0,-1.0));
#219=DIRECTION('',(-1.0,0.0,0.0));
#220=DIRECTION('',(-0.0,-0.0,1.0));
#221=CARTESIAN_POINT('',(108.2,142.3,950.0));
#222=DIRECTION('',(0.0,0.0,1.0));
#223=DIRECTION('',(-1.0,0.0,0.0));
#224=CARTESIAN_POINT('',(108.2,142.3,950.0));
#225=DIRECTION('',(0.0,0.0,1.0));
#226=DIRECTION('',(-1.0,0.0,0.0));
#227=CARTESIAN_POINT('',(108.2,142.3,1000.0));
#228=DIRECTION('',(0.0,0.0,-1.0));
#229=DIRECTION('',(-1.0,0.0,0.0));
#230=CARTESIAN_POINT('',(108.2,142.3,950.0));
#231=DIRECTION('',(0.0,0.0,-1.0));
#232=DIRECTION('',(-1.0,0.0,0.0));
#233=CARTESIAN_POINT('',(108.2,142.3,1000.0));
#234=DIRECTION('',(0.0,0.0,-1.0));
#235=DIRECTION('',(-1.0,0.0,0.0));
ENDSEC;
END-ISO-10303-21;
