ISO-10303-21;
HEADER;
FILE_DESCRIPTION(('STEP AP214'),'1');
FILE_NAME('3036448 Livia SR_Edelstahl.STP','2025-07-24T09:54:30',(' '),(' '),'Spatial InterOp 3D',' ',' ');
FILE_SCHEMA(('AUTOMOTIVE_DESIGN { 1 0 10303 214 1 1 1 1 }'));
ENDSEC;
DATA;
#1=MECHANICAL_DESIGN_GEOMETRIC_PRESENTATION_REPRESENTATION(' ',(#10),#6);
#2=PRODUCT_DEFINITION_CONTEXT('',#11,'design');
#3=APPLICATION_PROTOCOL_DEFINITION('INTERNATIONAL STANDARD','automotive_design',1994,#11);
#4=PRODUCT_CATEGORY_RELATIONSHIP('NONE','NONE',#12,#13);
#5=SHAPE_DEFINITION_REPRESENTATION(#14,#15);
#6= (GEOMETRIC_REPRESENTATION_CONTEXT(3)GLOBAL_UNCERTAINTY_ASSIGNED_CONTEXT((#18))GLOBAL_UNIT_ASSIGNED_CONTEXT((#20,#21,#22))REPRESENTATION_CONTEXT('NONE','WORKSPACE'));
#10=STYLED_ITEM('',(#24),#25);
#11=APPLICATION_CONTEXT(' ');
#12=PRODUCT_CATEGORY('part','NONE');
#13=PRODUCT_RELATED_PRODUCT_CATEGORY('detail',' ',(#26));
#14=PRODUCT_DEFINITION_SHAPE('NONE','NONE',#27);
#15=ADVANCED_BREP_SHAPE_REPRESENTATION('Combine2',(#25,#28),#6);
#18=UNCERTAINTY_MEASURE_WITH_UNIT(LENGTH_MEASURE(1.0E-06),#20,'','');
#20= (CONVERSION_BASED_UNIT('MILLIMETRE',#31)LENGTH_UNIT()NAMED_UNIT(#34));
#21= (NAMED_UNIT(#36)PLANE_ANGLE_UNIT()SI_UNIT($,.RADIAN.));
#22= (NAMED_UNIT(#36)SOLID_ANGLE_UNIT()SI_UNIT($,.STERADIAN.));
#24=PRESENTATION_STYLE_ASSIGNMENT((#42));
#25=MANIFOLD_SOLID_BREP('Combine2',#43);
#26=PRODUCT('Combine2','','PART--DESC',(#44));
#27=PRODUCT_DEFINITION('','NONE',#45,#2);
#28=AXIS2_PLACEMENT_3D('',#46,#47,#48);
#31=LENGTH_MEASURE_WITH_UNIT(LENGTH_MEASURE(1.0),#49);
#34=DIMENSIONAL_EXPONENTS(1.0,0.0,0.0,0.0,0.0,0.0,0.0);
#36=DIMENSIONAL_EXPONENTS(0.0,0.0,0.0,0.0,0.0,0.0,0.0);
#42=SURFACE_STYLE_USAGE(.BOTH.,#50);
#43=CLOSED_SHELL('',(#51,#52,#53,#54,#55,#56,#57,#58,#59,#60,#61,#62,#63,#64,#65,#66,#67,#68,#69,#70));
#44=PRODUCT_CONTEXT('',#11,'mechanical');
#45=PRODUCT_DEFINITION_FORMATION_WITH_SPECIFIED_SOURCE(' ','NONE',#26,.NOT_KNOWN.);
#46=CARTESIAN_POINT('',(0.0,0.0,0.0));
#47=DIRECTION('',(0.0,0.0,1.0));
#48=DIRECTION('',(1.0,0.0,0.0));
#49= (NAMED_UNIT(#34)LENGTH_UNIT()SI_UNIT(.MILLI.,.METRE.));
#50=SURFACE_SIDE_STYLE('',(#72));
#51=ADVANCED_FACE('NONE',(#73),#74,.T.);
#52=ADVANCED_FACE('NONE',(#75),#76,.T.);
#53=ADVANCED_FACE('NONE',(#77),#78,.F.);
#54=ADVANCED_FACE('NONE',(#79),#80,.T.);
#55=ADVANCED_FACE('NONE',(#81),#82,.F.);
#56=ADVANCED_FACE('NONE',(#83),#84,.T.);
#57=ADVANCED_FACE('NONE',(#85),#86,.T.);
#58=ADVANCED_FACE('NONE',(#87),#88,.T.);
#59=ADVANCED_FACE('NONE',(#89),#90,.F.);
#60=ADVANCED_FACE('NONE',(#91,#92),#93,.T.);
#61=ADVANCED_FACE('NONE',(#94),#95,.T.);
#62=ADVANCED_FACE('NONE',(#96),#97,.T.);
#63=ADVANCED_FACE('NONE',(#98),#99,.F.);
#64=ADVANCED_FACE('NONE',(#100),#101,.F.);
#65=ADVANCED_FACE('NONE',(#102),#103,.T.);
#66=ADVANCED_FACE('NONE',(#104),#105,.T.);
#67=ADVANCED_FACE('NONE',(#106),#107,.T.);
#68=ADVANCED_FACE('NONE',(#108),#109,.T.);
#69=ADVANCED_FACE('NONE',(#110),#111,.F.);
#70=ADVANCED_FACE('NONE',(#112,#113),#114,.T.);
#72=SURFACE_STYLE_FILL_AREA(#115);
#73=FACE_OUTER_BOUND('',#116,.T.);
#74=CYLINDRICAL_SURFACE('',#117,225.0);
#75=FACE_OUTER_BOUND('',#118,.T.);
#76=CYLINDRICAL_SURFACE('',#119,40.0);
#77=FACE_OUTER_BOUND('',#120,.T.);
#78=PLANE('',#121);
#79=FACE_OUTER_BOUND('',#122,.T.);
#80=PLANE('',#123);
#81=FACE_OUTER_BOUND('',#124,.T.);
#82=PLANE('',#125);
#83=FACE_OUTER_BOUND('',#126,.T.);
#84=PLANE('',#127);
#85=FACE_OUTER_BOUND('',#128,.T.);
#86=PLANE('',#129);
#87=FACE_OUTER_BOUND('',#130,.T.);
#88=PLANE('',#131);
#89=FACE_OUTER_BOUND('',#132,.T.);
#90=PLANE('',#133);
#91=FACE_OUTER_BOUND('',#134,.T.);
#92=FACE_BOUND('',#135,.T.);
#93=PLANE('',#136);
#94=FACE_OUTER_BOUND('',#137,.T.);
#95=PLANE('',#138);
#96=FACE_OUTER_BOUND('',#139,.T.);
#97=PLANE('',#140);
#98=FACE_OUTER_BOUND('',#141,.T.);
#99=PLANE('',#142);
#100=FACE_OUTER_BOUND('',#143,.T.);
#101=PLANE('',#144);
#102=FACE_OUTER_BOUND('',#145,.T.);
#103=PLANE('',#146);
#104=FACE_OUTER_BOUND('',#147,.T.);
#105=PLANE('',#148);
#106=FACE_OUTER_BOUND('',#149,.T.);
#107=CYLINDRICAL_SURFACE('',#150,40.0);
#108=FACE_OUTER_BOUND('',#151,.T.);
#109=CYLINDRICAL_SURFACE('',#152,225.0);
#110=FACE_OUTER_BOUND('',#153,.T.);
#111=PLANE('',#154);
#112=FACE_OUTER_BOUND('',#155,.T.);
#113=FACE_BOUND('',#156,.T.);
#114=PLANE('',#157);
#115=FILL_AREA_STYLE('',(#158));
#116=EDGE_LOOP('',(#159,#160,#161,#162));
#117=AXIS2_PLACEMENT_3D('',#163,#164,#165);
#118=EDGE_LOOP('',(#166,#167,#168,#169));
#119=AXIS2_PLACEMENT_3D('',#170,#171,#172);
#120=EDGE_LOOP('',(#173,#174,#175,#176));
#121=AXIS2_PLACEMENT_3D('',#177,#178,#179);
#122=EDGE_LOOP('',(#180,#181,#182,#183));
#123=AXIS2_PLACEMENT_3D('',#184,#185,#186);
#124=EDGE_LOOP('',(#187,#188,#189,#190));
#125=AXIS2_PLACEMENT_3D('',#191,#192,#193);
#126=EDGE_LOOP('',(#194,#195,#196,#197));
#127=AXIS2_PLACEMENT_3D('',#198,#199,#200);
#128=EDGE_LOOP('',(#201,#202,#203,#204));
#129=AXIS2_PLACEMENT_3D('',#205,#206,#207);
#130=EDGE_LOOP('',(#208,#209,#210,#211));
#131=AXIS2_PLACEMENT_3D('',#212,#213,#214);
#132=EDGE_LOOP('',(#215,#216,#217,#218,#219,#220,#221,#222,#223,#224,#225,#226));
#133=AXIS2_PLACEMENT_3D('',#227,#228,#229);
#134=EDGE_LOOP('',(#230,#231,#232,#233,#234,#235,#236,#237,#238,#239,#240,#241));
#135=EDGE_LOOP('',(#242,#243));
#136=AXIS2_PLACEMENT_3D('',#244,#245,#246);
#137=EDGE_LOOP('',(#247,#248,#249,#250));
#138=AXIS2_PLACEMENT_3D('',#251,#252,#253);
#139=EDGE_LOOP('',(#254,#255,#256,#257));
#140=AXIS2_PLACEMENT_3D('',#258,#259,#260);
#141=EDGE_LOOP('',(#261,#262,#263,#264));
#142=AXIS2_PLACEMENT_3D('',#265,#266,#267);
#143=EDGE_LOOP('',(#268,#269,#270,#271));
#144=AXIS2_PLACEMENT_3D('',#272,#273,#274);
#145=EDGE_LOOP('',(#275,#276,#277,#278));
#146=AXIS2_PLACEMENT_3D('',#279,#280,#281);
#147=EDGE_LOOP('',(#282,#283,#284,#285));
#148=AXIS2_PLACEMENT_3D('',#286,#287,#288);
#149=EDGE_LOOP('',(#289,#290,#291,#292));
#150=AXIS2_PLACEMENT_3D('',#293,#294,#295);
#151=EDGE_LOOP('',(#296,#297,#298,#299));
#152=AXIS2_PLACEMENT_3D('',#300,#301,#302);
#153=EDGE_LOOP('',(#303,#304));
#154=AXIS2_PLACEMENT_3D('',#305,#306,#307);
#155=EDGE_LOOP('',(#308,#309));
#156=EDGE_LOOP('',(#310,#311));
#157=AXIS2_PLACEMENT_3D('',#312,#313,#314);
#158=FILL_AREA_STYLE_COLOUR('',#315);
#159=ORIENTED_EDGE('',*,*,#316,.F.);
#160=ORIENTED_EDGE('',*,*,#317,.T.);
#161=ORIENTED_EDGE('',*,*,#318,.T.);
#162=ORIENTED_EDGE('',*,*,#319,.F.);
#163=CARTESIAN_POINT('',(0.0,10.0,0.0));
#164=DIRECTION('',(0.0,1.0,0.0));
#165=DIRECTION('',(0.0,0.0,-1.0));
#166=ORIENTED_EDGE('',*,*,#320,.F.);
#167=ORIENTED_EDGE('',*,*,#321,.T.);
#168=ORIENTED_EDGE('',*,*,#322,.T.);
#169=ORIENTED_EDGE('',*,*,#323,.F.);
#170=CARTESIAN_POINT('',(0.0,1055.0,0.0));
#171=DIRECTION('',(0.0,1.0,0.0));
#172=DIRECTION('',(0.0,0.0,-1.0));
#173=ORIENTED_EDGE('',*,*,#324,.F.);
#174=ORIENTED_EDGE('',*,*,#325,.F.);
#175=ORIENTED_EDGE('',*,*,#326,.T.);
#176=ORIENTED_EDGE('',*,*,#327,.T.);
#177=CARTESIAN_POINT('',(-40.0000000000001,1080.0,-250.0));
#178=DIRECTION('',(1.0,0.0,-1.22464679914735E-16));
#179=DIRECTION('',(-1.22464679914735E-16,0.0,-1.0));
#180=ORIENTED_EDGE('',*,*,#328,.T.);
#181=ORIENTED_EDGE('',*,*,#329,.T.);
#182=ORIENTED_EDGE('',*,*,#330,.F.);
#183=ORIENTED_EDGE('',*,*,#331,.F.);
#184=CARTESIAN_POINT('',(39.9999999999999,1080.0,-250.0));
#185=DIRECTION('',(1.0,0.0,-1.22464679914735E-16));
#186=DIRECTION('',(-1.22464679914735E-16,0.0,-1.0));
#187=ORIENTED_EDGE('',*,*,#332,.F.);
#188=ORIENTED_EDGE('',*,*,#333,.T.);
#189=ORIENTED_EDGE('',*,*,#334,.T.);
#190=ORIENTED_EDGE('',*,*,#335,.F.);
#191=CARTESIAN_POINT('',(-40.0000000000001,1080.0,-250.0));
#192=DIRECTION('',(1.0,0.0,-1.22464679914735E-16));
#193=DIRECTION('',(-1.22464679914735E-16,0.0,-1.0));
#194=ORIENTED_EDGE('',*,*,#336,.F.);
#195=ORIENTED_EDGE('',*,*,#337,.F.);
#196=ORIENTED_EDGE('',*,*,#338,.T.);
#197=ORIENTED_EDGE('',*,*,#335,.T.);
#198=CARTESIAN_POINT('',(39.9999999999999,1080.0,250.0));
#199=DIRECTION('',(0.0,-0.0,1.0));
#200=DIRECTION('',(1.0,0.0,-0.0));
#201=ORIENTED_EDGE('',*,*,#339,.F.);
#202=ORIENTED_EDGE('',*,*,#340,.T.);
#203=ORIENTED_EDGE('',*,*,#337,.T.);
#204=ORIENTED_EDGE('',*,*,#341,.F.);
#205=CARTESIAN_POINT('',(39.9999999999999,1080.0,-250.0));
#206=DIRECTION('',(1.0,0.0,-1.22464679914735E-16));
#207=DIRECTION('',(-1.22464679914735E-16,0.0,-1.0));
#208=ORIENTED_EDGE('',*,*,#342,.F.);
#209=ORIENTED_EDGE('',*,*,#326,.F.);
#210=ORIENTED_EDGE('',*,*,#343,.T.);
#211=ORIENTED_EDGE('',*,*,#331,.T.);
#212=CARTESIAN_POINT('',(-40.0000000000001,1080.0,-250.0));
#213=DIRECTION('',(0.0,0.0,-1.0));
#214=DIRECTION('',(0.0,-1.0,0.0));
#215=ORIENTED_EDGE('',*,*,#340,.F.);
#216=ORIENTED_EDGE('',*,*,#344,.F.);
#217=ORIENTED_EDGE('',*,*,#345,.F.);
#218=ORIENTED_EDGE('',*,*,#346,.T.);
#219=ORIENTED_EDGE('',*,*,#328,.F.);
#220=ORIENTED_EDGE('',*,*,#343,.F.);
#221=ORIENTED_EDGE('',*,*,#325,.T.);
#222=ORIENTED_EDGE('',*,*,#347,.T.);
#223=ORIENTED_EDGE('',*,*,#348,.F.);
#224=ORIENTED_EDGE('',*,*,#349,.F.);
#225=ORIENTED_EDGE('',*,*,#332,.T.);
#226=ORIENTED_EDGE('',*,*,#338,.F.);
#227=CARTESIAN_POINT('',(0.0,1080.0,0.0));
#228=DIRECTION('',(0.0,-1.0,0.0));
#229=DIRECTION('',(0.0,0.0,-1.0));
#230=ORIENTED_EDGE('',*,*,#334,.F.);
#231=ORIENTED_EDGE('',*,*,#350,.T.);
#232=ORIENTED_EDGE('',*,*,#351,.T.);
#233=ORIENTED_EDGE('',*,*,#352,.F.);
#234=ORIENTED_EDGE('',*,*,#327,.F.);
#235=ORIENTED_EDGE('',*,*,#342,.T.);
#236=ORIENTED_EDGE('',*,*,#330,.T.);
#237=ORIENTED_EDGE('',*,*,#353,.F.);
#238=ORIENTED_EDGE('',*,*,#354,.T.);
#239=ORIENTED_EDGE('',*,*,#355,.T.);
#240=ORIENTED_EDGE('',*,*,#341,.T.);
#241=ORIENTED_EDGE('',*,*,#336,.T.);
#242=ORIENTED_EDGE('',*,*,#356,.T.);
#243=ORIENTED_EDGE('',*,*,#320,.T.);
#244=CARTESIAN_POINT('',(0.0,1055.0,0.0));
#245=DIRECTION('',(0.0,-1.0,0.0));
#246=DIRECTION('',(0.0,0.0,-1.0));
#247=ORIENTED_EDGE('',*,*,#354,.F.);
#248=ORIENTED_EDGE('',*,*,#357,.F.);
#249=ORIENTED_EDGE('',*,*,#345,.T.);
#250=ORIENTED_EDGE('',*,*,#358,.T.);
#251=CARTESIAN_POINT('',(250.0,1080.0,-40.0));
#252=DIRECTION('',(1.0,0.0,0.0));
#253=DIRECTION('',(0.0,1.0,0.0));
#254=ORIENTED_EDGE('',*,*,#344,.T.);
#255=ORIENTED_EDGE('',*,*,#339,.T.);
#256=ORIENTED_EDGE('',*,*,#355,.F.);
#257=ORIENTED_EDGE('',*,*,#358,.F.);
#258=CARTESIAN_POINT('',(250.0,1080.0,40.0));
#259=DIRECTION('',(1.22464679914735E-16,-0.0,1.0));
#260=DIRECTION('',(1.0,0.0,-1.22464679914735E-16));
#261=ORIENTED_EDGE('',*,*,#329,.F.);
#262=ORIENTED_EDGE('',*,*,#346,.F.);
#263=ORIENTED_EDGE('',*,*,#357,.T.);
#264=ORIENTED_EDGE('',*,*,#353,.T.);
#265=CARTESIAN_POINT('',(250.0,1080.0,-40.0));
#266=DIRECTION('',(1.22464679914735E-16,-0.0,1.0));
#267=DIRECTION('',(1.0,0.0,-1.22464679914735E-16));
#268=ORIENTED_EDGE('',*,*,#347,.F.);
#269=ORIENTED_EDGE('',*,*,#324,.T.);
#270=ORIENTED_EDGE('',*,*,#352,.T.);
#271=ORIENTED_EDGE('',*,*,#359,.F.);
#272=CARTESIAN_POINT('',(250.0,1080.0,-40.0));
#273=DIRECTION('',(1.22464679914735E-16,-0.0,1.0));
#274=DIRECTION('',(1.0,0.0,-1.22464679914735E-16));
#275=ORIENTED_EDGE('',*,*,#333,.F.);
#276=ORIENTED_EDGE('',*,*,#349,.T.);
#277=ORIENTED_EDGE('',*,*,#360,.T.);
#278=ORIENTED_EDGE('',*,*,#350,.F.);
#279=CARTESIAN_POINT('',(250.0,1080.0,40.0));
#280=DIRECTION('',(1.22464679914735E-16,-0.0,1.0));
#281=DIRECTION('',(1.0,0.0,-1.22464679914735E-16));
#282=ORIENTED_EDGE('',*,*,#351,.F.);
#283=ORIENTED_EDGE('',*,*,#360,.F.);
#284=ORIENTED_EDGE('',*,*,#348,.T.);
#285=ORIENTED_EDGE('',*,*,#359,.T.);
#286=CARTESIAN_POINT('',(-250.0,1080.0,40.0000000000001));
#287=DIRECTION('',(-1.0,0.0,0.0));
#288=DIRECTION('',(0.0,0.0,1.0));
#289=ORIENTED_EDGE('',*,*,#321,.F.);
#290=ORIENTED_EDGE('',*,*,#356,.F.);
#291=ORIENTED_EDGE('',*,*,#323,.T.);
#292=ORIENTED_EDGE('',*,*,#361,.T.);
#293=CARTESIAN_POINT('',(0.0,1055.0,0.0));
#294=DIRECTION('',(0.0,1.0,0.0));
#295=DIRECTION('',(0.0,0.0,-1.0));
#296=ORIENTED_EDGE('',*,*,#317,.F.);
#297=ORIENTED_EDGE('',*,*,#362,.F.);
#298=ORIENTED_EDGE('',*,*,#319,.T.);
#299=ORIENTED_EDGE('',*,*,#363,.T.);
#300=CARTESIAN_POINT('',(0.0,10.0,0.0));
#301=DIRECTION('',(0.0,1.0,0.0));
#302=DIRECTION('',(0.0,0.0,-1.0));
#303=ORIENTED_EDGE('',*,*,#363,.F.);
#304=ORIENTED_EDGE('',*,*,#318,.F.);
#305=CARTESIAN_POINT('',(0.0,0.0,0.0));
#306=DIRECTION('',(0.0,1.0,0.0));
#307=DIRECTION('',(1.0,-0.0,0.0));
#308=ORIENTED_EDGE('',*,*,#362,.T.);
#309=ORIENTED_EDGE('',*,*,#316,.T.);
#310=ORIENTED_EDGE('',*,*,#361,.F.);
#311=ORIENTED_EDGE('',*,*,#322,.F.);
#312=CARTESIAN_POINT('',(0.0,10.0,0.0));
#313=DIRECTION('',(0.0,1.0,0.0));
#314=DIRECTION('',(1.0,-0.0,0.0));
#315=COLOUR_RGB('',0.0,0.0,0.0);
#316=EDGE_CURVE('NONE',#364,#365,#366,.T.);
#317=EDGE_CURVE('NONE',#364,#367,#368,.T.);
#318=EDGE_CURVE('NONE',#367,#369,#370,.T.);
#319=EDGE_CURVE('NONE',#365,#369,#371,.T.);
#320=EDGE_CURVE('NONE',#372,#373,#374,.T.);
#321=EDGE_CURVE('NONE',#372,#375,#376,.T.);
#322=EDGE_CURVE('NONE',#375,#377,#378,.T.);
#323=EDGE_CURVE('NONE',#373,#377,#379,.T.);
#324=EDGE_CURVE('NONE',#380,#381,#382,.T.);
#325=EDGE_CURVE('NONE',#383,#380,#384,.T.);
#326=EDGE_CURVE('NONE',#383,#385,#386,.T.);
#327=EDGE_CURVE('NONE',#385,#381,#387,.T.);
#328=EDGE_CURVE('NONE',#388,#389,#390,.T.);
#329=EDGE_CURVE('NONE',#389,#391,#392,.T.);
#330=EDGE_CURVE('NONE',#393,#391,#394,.T.);
#331=EDGE_CURVE('NONE',#388,#393,#395,.T.);
#332=EDGE_CURVE('NONE',#396,#397,#398,.T.);
#333=EDGE_CURVE('NONE',#396,#399,#400,.T.);
#334=EDGE_CURVE('NONE',#399,#401,#402,.T.);
#335=EDGE_CURVE('NONE',#397,#401,#403,.T.);
#336=EDGE_CURVE('NONE',#404,#401,#405,.T.);
#337=EDGE_CURVE('NONE',#406,#404,#407,.T.);
#338=EDGE_CURVE('NONE',#406,#397,#408,.T.);
#339=EDGE_CURVE('NONE',#409,#410,#411,.T.);
#340=EDGE_CURVE('NONE',#409,#406,#412,.T.);
#341=EDGE_CURVE('NONE',#410,#404,#413,.T.);
#342=EDGE_CURVE('NONE',#385,#393,#414,.T.);
#343=EDGE_CURVE('NONE',#383,#388,#415,.T.);
#344=EDGE_CURVE('NONE',#416,#409,#417,.T.);
#345=EDGE_CURVE('NONE',#418,#416,#419,.T.);
#346=EDGE_CURVE('NONE',#418,#389,#420,.T.);
#347=EDGE_CURVE('NONE',#380,#421,#422,.T.);
#348=EDGE_CURVE('NONE',#423,#421,#424,.T.);
#349=EDGE_CURVE('NONE',#396,#423,#425,.T.);
#350=EDGE_CURVE('NONE',#399,#426,#427,.T.);
#351=EDGE_CURVE('NONE',#426,#428,#429,.T.);
#352=EDGE_CURVE('NONE',#381,#428,#430,.T.);
#353=EDGE_CURVE('NONE',#431,#391,#432,.T.);
#354=EDGE_CURVE('NONE',#431,#433,#434,.T.);
#355=EDGE_CURVE('NONE',#433,#410,#435,.T.);
#356=EDGE_CURVE('NONE',#373,#372,#436,.T.);
#357=EDGE_CURVE('NONE',#418,#431,#437,.T.);
#358=EDGE_CURVE('NONE',#416,#433,#438,.T.);
#359=EDGE_CURVE('NONE',#421,#428,#439,.T.);
#360=EDGE_CURVE('NONE',#423,#426,#440,.T.);
#361=EDGE_CURVE('NONE',#377,#375,#441,.T.);
#362=EDGE_CURVE('NONE',#365,#364,#442,.T.);
#363=EDGE_CURVE('NONE',#369,#367,#443,.T.);
#364=VERTEX_POINT('NONE',#444);
#365=VERTEX_POINT('NONE',#445);
#366=CIRCLE('',#446,225.0);
#367=VERTEX_POINT('NONE',#447);
#368=LINE('',#448,#449);
#369=VERTEX_POINT('NONE',#450);
#370=CIRCLE('',#451,225.0);
#371=LINE('',#452,#453);
#372=VERTEX_POINT('NONE',#454);
#373=VERTEX_POINT('NONE',#455);
#374=CIRCLE('',#456,40.0);
#375=VERTEX_POINT('NONE',#457);
#376=LINE('',#458,#459);
#377=VERTEX_POINT('NONE',#460);
#378=CIRCLE('',#461,40.0);
#379=LINE('',#462,#463);
#380=VERTEX_POINT('NONE',#464);
#381=VERTEX_POINT('NONE',#465);
#382=LINE('',#466,#467);
#383=VERTEX_POINT('NONE',#468);
#384=LINE('',#469,#470);
#385=VERTEX_POINT('NONE',#471);
#386=LINE('',#472,#473);
#387=LINE('',#474,#475);
#388=VERTEX_POINT('NONE',#476);
#389=VERTEX_POINT('NONE',#477);
#390=LINE('',#478,#479);
#391=VERTEX_POINT('NONE',#480);
#392=LINE('',#481,#482);
#393=VERTEX_POINT('NONE',#483);
#394=LINE('',#484,#485);
#395=LINE('',#486,#487);
#396=VERTEX_POINT('NONE',#488);
#397=VERTEX_POINT('NONE',#489);
#398=LINE('',#490,#491);
#399=VERTEX_POINT('NONE',#492);
#400=LINE('',#493,#494);
#401=VERTEX_POINT('NONE',#495);
#402=LINE('',#496,#497);
#403=LINE('',#498,#499);
#404=VERTEX_POINT('NONE',#500);
#405=LINE('',#501,#502);
#406=VERTEX_POINT('NONE',#503);
#407=LINE('',#504,#505);
#408=LINE('',#506,#507);
#409=VERTEX_POINT('NONE',#508);
#410=VERTEX_POINT('NONE',#509);
#411=LINE('',#510,#511);
#412=LINE('',#512,#513);
#413=LINE('',#514,#515);
#414=LINE('',#516,#517);
#415=LINE('',#518,#519);
#416=VERTEX_POINT('NONE',#520);
#417=LINE('',#521,#522);
#418=VERTEX_POINT('NONE',#523);
#419=LINE('',#524,#525);
#420=LINE('',#526,#527);
#421=VERTEX_POINT('NONE',#528);
#422=LINE('',#529,#530);
#423=VERTEX_POINT('NONE',#531);
#424=LINE('',#532,#533);
#425=LINE('',#534,#535);
#426=VERTEX_POINT('NONE',#536);
#427=LINE('',#537,#538);
#428=VERTEX_POINT('NONE',#539);
#429=LINE('',#540,#541);
#430=LINE('',#542,#543);
#431=VERTEX_POINT('NONE',#544);
#432=LINE('',#545,#546);
#433=VERTEX_POINT('NONE',#547);
#434=LINE('',#548,#549);
#435=LINE('',#550,#551);
#436=CIRCLE('',#552,40.0);
#437=LINE('',#553,#554);
#438=LINE('',#555,#556);
#439=LINE('',#557,#558);
#440=LINE('',#559,#560);
#441=CIRCLE('',#561,40.0);
#442=CIRCLE('',#562,225.0);
#443=CIRCLE('',#563,225.0);
#444=CARTESIAN_POINT('',(2.75545529808154E-14,10.0,225.0));
#445=CARTESIAN_POINT('',(0.0,10.0,-225.0));
#446=AXIS2_PLACEMENT_3D('',#564,#565,#566);
#447=CARTESIAN_POINT('',(2.75545529808154E-14,0.0,225.0));
#448=CARTESIAN_POINT('',(2.75545529808154E-14,10.0,225.0));
#449=VECTOR('',#567,1000.0);
#450=CARTESIAN_POINT('',(0.0,0.0,-225.0));
#451=AXIS2_PLACEMENT_3D('',#568,#569,#570);
#452=CARTESIAN_POINT('',(0.0,10.0,-225.0));
#453=VECTOR('',#571,1000.0);
#454=CARTESIAN_POINT('',(4.89858719658941E-15,1055.0,40.0));
#455=CARTESIAN_POINT('',(0.0,1055.0,-40.0));
#456=AXIS2_PLACEMENT_3D('',#572,#573,#574);
#457=CARTESIAN_POINT('',(4.89858719658941E-15,10.0,40.0));
#458=CARTESIAN_POINT('',(4.89858719658941E-15,1055.0,40.0));
#459=VECTOR('',#575,1000.0);
#460=CARTESIAN_POINT('',(0.0,10.0,-40.0));
#461=AXIS2_PLACEMENT_3D('',#576,#577,#578);
#462=CARTESIAN_POINT('',(0.0,1055.0,-40.0));
#463=VECTOR('',#579,1000.0);
#464=CARTESIAN_POINT('',(-40.0000000000001,1080.0,-40.0));
#465=CARTESIAN_POINT('',(-40.0000000000001,1055.0,-40.0));
#466=CARTESIAN_POINT('',(-40.0000000000001,1080.0,-40.0));
#467=VECTOR('',#580,1000.0);
#468=CARTESIAN_POINT('',(-40.0000000000001,1080.0,-250.0));
#469=CARTESIAN_POINT('',(-40.0000000000001,1080.0,-250.0));
#470=VECTOR('',#581,1000.0);
#471=CARTESIAN_POINT('',(-40.0000000000001,1055.0,-250.0));
#472=CARTESIAN_POINT('',(-40.0000000000001,1080.0,-250.0));
#473=VECTOR('',#582,1000.0);
#474=CARTESIAN_POINT('',(-40.0000000000001,1055.0,-250.0));
#475=VECTOR('',#583,1000.0);
#476=CARTESIAN_POINT('',(39.9999999999999,1080.0,-250.0));
#477=CARTESIAN_POINT('',(39.9999999999999,1080.0,-40.0));
#478=CARTESIAN_POINT('',(39.9999999999999,1080.0,-250.0));
#479=VECTOR('',#584,1000.0);
#480=CARTESIAN_POINT('',(39.9999999999999,1055.0,-40.0));
#481=CARTESIAN_POINT('',(39.9999999999999,1080.0,-40.0));
#482=VECTOR('',#585,1000.0);
#483=CARTESIAN_POINT('',(39.9999999999999,1055.0,-250.0));
#484=CARTESIAN_POINT('',(39.9999999999999,1055.0,-250.0));
#485=VECTOR('',#586,1000.0);
#486=CARTESIAN_POINT('',(39.9999999999999,1080.0,-250.0));
#487=VECTOR('',#587,1000.0);
#488=CARTESIAN_POINT('',(-40.0000000000001,1080.0,40.0));
#489=CARTESIAN_POINT('',(-40.0000000000001,1080.0,250.0));
#490=CARTESIAN_POINT('',(-40.0000000000001,1080.0,-250.0));
#491=VECTOR('',#588,1000.0);
#492=CARTESIAN_POINT('',(-40.0000000000001,1055.0,40.0));
#493=CARTESIAN_POINT('',(-40.0000000000001,1080.0,40.0));
#494=VECTOR('',#589,1000.0);
#495=CARTESIAN_POINT('',(-40.0000000000001,1055.0,250.0));
#496=CARTESIAN_POINT('',(-40.0000000000001,1055.0,-250.0));
#497=VECTOR('',#590,1000.0);
#498=CARTESIAN_POINT('',(-40.0000000000001,1080.0,250.0));
#499=VECTOR('',#591,1000.0);
#500=CARTESIAN_POINT('',(39.9999999999999,1055.0,250.0));
#501=CARTESIAN_POINT('',(39.9999999999999,1055.0,250.0));
#502=VECTOR('',#592,1000.0);
#503=CARTESIAN_POINT('',(39.9999999999999,1080.0,250.0));
#504=CARTESIAN_POINT('',(39.9999999999999,1080.0,250.0));
#505=VECTOR('',#593,1000.0);
#506=CARTESIAN_POINT('',(39.9999999999999,1080.0,250.0));
#507=VECTOR('',#594,1000.0);
#508=CARTESIAN_POINT('',(39.9999999999999,1080.0,40.0));
#509=CARTESIAN_POINT('',(39.9999999999999,1055.0,40.0));
#510=CARTESIAN_POINT('',(39.9999999999999,1080.0,40.0));
#511=VECTOR('',#595,1000.0);
#512=CARTESIAN_POINT('',(39.9999999999999,1080.0,-250.0));
#513=VECTOR('',#596,1000.0);
#514=CARTESIAN_POINT('',(39.9999999999999,1055.0,-250.0));
#515=VECTOR('',#597,1000.0);
#516=CARTESIAN_POINT('',(-40.0000000000001,1055.0,-250.0));
#517=VECTOR('',#598,1000.0);
#518=CARTESIAN_POINT('',(-40.0000000000001,1080.0,-250.0));
#519=VECTOR('',#599,1000.0);
#520=CARTESIAN_POINT('',(250.0,1080.0,40.0));
#521=CARTESIAN_POINT('',(250.0,1080.0,40.0));
#522=VECTOR('',#600,1000.0);
#523=CARTESIAN_POINT('',(250.0,1080.0,-40.0));
#524=CARTESIAN_POINT('',(250.0,1080.0,-40.0));
#525=VECTOR('',#601,1000.0);
#526=CARTESIAN_POINT('',(250.0,1080.0,-40.0));
#527=VECTOR('',#602,1000.0);
#528=CARTESIAN_POINT('',(-250.0,1080.0,-39.9999999999999));
#529=CARTESIAN_POINT('',(250.0,1080.0,-40.0));
#530=VECTOR('',#603,1000.0);
#531=CARTESIAN_POINT('',(-250.0,1080.0,40.0000000000001));
#532=CARTESIAN_POINT('',(-250.0,1080.0,40.0000000000001));
#533=VECTOR('',#604,1000.0);
#534=CARTESIAN_POINT('',(250.0,1080.0,40.0));
#535=VECTOR('',#605,1000.0);
#536=CARTESIAN_POINT('',(-250.0,1055.0,40.0000000000001));
#537=CARTESIAN_POINT('',(250.0,1055.0,40.0));
#538=VECTOR('',#606,1000.0);
#539=CARTESIAN_POINT('',(-250.0,1055.0,-39.9999999999999));
#540=CARTESIAN_POINT('',(-250.0,1055.0,40.0000000000001));
#541=VECTOR('',#607,1000.0);
#542=CARTESIAN_POINT('',(250.0,1055.0,-40.0));
#543=VECTOR('',#608,1000.0);
#544=CARTESIAN_POINT('',(250.0,1055.0,-40.0));
#545=CARTESIAN_POINT('',(250.0,1055.0,-40.0));
#546=VECTOR('',#609,1000.0);
#547=CARTESIAN_POINT('',(250.0,1055.0,40.0));
#548=CARTESIAN_POINT('',(250.0,1055.0,-40.0));
#549=VECTOR('',#610,1000.0);
#550=CARTESIAN_POINT('',(250.0,1055.0,40.0));
#551=VECTOR('',#611,1000.0);
#552=AXIS2_PLACEMENT_3D('',#612,#613,#614);
#553=CARTESIAN_POINT('',(250.0,1080.0,-40.0));
#554=VECTOR('',#615,1000.0);
#555=CARTESIAN_POINT('',(250.0,1080.0,40.0));
#556=VECTOR('',#616,1000.0);
#557=CARTESIAN_POINT('',(-250.0,1080.0,-39.9999999999999));
#558=VECTOR('',#617,1000.0);
#559=CARTESIAN_POINT('',(-250.0,1080.0,40.0000000000001));
#560=VECTOR('',#618,1000.0);
#561=AXIS2_PLACEMENT_3D('',#619,#620,#621);
#562=AXIS2_PLACEMENT_3D('',#622,#623,#624);
#563=AXIS2_PLACEMENT_3D('',#625,#626,#627);
#564=CARTESIAN_POINT('',(0.0,10.0,0.0));
#565=DIRECTION('',(0.0,1.0,-0.0));
#566=DIRECTION('',(0.0,0.0,1.0));
#567=DIRECTION('',(-0.0,-1.0,-0.0));
#568=CARTESIAN_POINT('',(0.0,0.0,0.0));
#569=DIRECTION('',(0.0,1.0,-0.0));
#570=DIRECTION('',(0.0,0.0,1.0));
#571=DIRECTION('',(-0.0,-1.0,-0.0));
#572=CARTESIAN_POINT('',(0.0,1055.0,0.0));
#573=DIRECTION('',(0.0,1.0,-0.0));
#574=DIRECTION('',(0.0,0.0,1.0));
#575=DIRECTION('',(-0.0,-1.0,-0.0));
#576=CARTESIAN_POINT('',(0.0,10.0,0.0));
#577=DIRECTION('',(0.0,1.0,-0.0));
#578=DIRECTION('',(0.0,0.0,1.0));
#579=DIRECTION('',(-0.0,-1.0,-0.0));
#580=DIRECTION('',(0.0,-1.0,0.0));
#581=DIRECTION('',(1.22464679914735E-16,0.0,1.0));
#582=DIRECTION('',(-0.0,-1.0,-0.0));
#583=DIRECTION('',(1.22464679914735E-16,0.0,1.0));
#584=DIRECTION('',(1.22464679914735E-16,0.0,1.0));
#585=DIRECTION('',(0.0,-1.0,0.0));
#586=DIRECTION('',(1.22464679914735E-16,0.0,1.0));
#587=DIRECTION('',(-0.0,-1.0,-0.0));
#588=DIRECTION('',(1.22464679914735E-16,0.0,1.0));
#589=DIRECTION('',(0.0,-1.0,0.0));
#590=DIRECTION('',(1.22464679914735E-16,0.0,1.0));
#591=DIRECTION('',(-0.0,-1.0,-0.0));
#592=DIRECTION('',(-1.0,0.0,0.0));
#593=DIRECTION('',(-0.0,-1.0,-0.0));
#594=DIRECTION('',(-1.0,0.0,0.0));
#595=DIRECTION('',(0.0,-1.0,0.0));
#596=DIRECTION('',(1.22464679914735E-16,0.0,1.0));
#597=DIRECTION('',(1.22464679914735E-16,0.0,1.0));
#598=DIRECTION('',(1.0,0.0,0.0));
#599=DIRECTION('',(1.0,0.0,0.0));
#600=DIRECTION('',(-1.0,0.0,1.22464679914735E-16));
#601=DIRECTION('',(0.0,0.0,1.0));
#602=DIRECTION('',(-1.0,0.0,1.22464679914735E-16));
#603=DIRECTION('',(-1.0,0.0,1.22464679914735E-16));
#604=DIRECTION('',(0.0,0.0,-1.0));
#605=DIRECTION('',(-1.0,0.0,1.22464679914735E-16));
#606=DIRECTION('',(-1.0,0.0,1.22464679914735E-16));
#607=DIRECTION('',(0.0,0.0,-1.0));
#608=DIRECTION('',(-1.0,0.0,1.22464679914735E-16));
#609=DIRECTION('',(-1.0,0.0,1.22464679914735E-16));
#610=DIRECTION('',(0.0,0.0,1.0));
#611=DIRECTION('',(-1.0,0.0,1.22464679914735E-16));
#612=CARTESIAN_POINT('',(0.0,1055.0,0.0));
#613=DIRECTION('',(0.0,1.0,-0.0));
#614=DIRECTION('',(0.0,0.0,1.0));
#615=DIRECTION('',(-0.0,-1.0,-0.0));
#616=DIRECTION('',(-0.0,-1.0,-0.0));
#617=DIRECTION('',(-0.0,-1.0,-0.0));
#618=DIRECTION('',(-0.0,-1.0,-0.0));
#619=CARTESIAN_POINT('',(0.0,10.0,0.0));
#620=DIRECTION('',(0.0,1.0,-0.0));
#621=DIRECTION('',(0.0,0.0,1.0));
#622=CARTESIAN_POINT('',(0.0,10.0,0.0));
#623=DIRECTION('',(0.0,1.0,-0.0));
#624=DIRECTION('',(0.0,0.0,1.0));
#625=CARTESIAN_POINT('',(0.0,0.0,0.0));
#626=DIRECTION('',(0.0,1.0,-0.0));
#627=DIRECTION('',(0.0,0.0,1.0));
#628=PRESENTATION_LAYER_ASSIGNMENT('','',(#51,#52,#53,#54,#55,#56,#57,#58,#59,#60,#61,#62,#63,#64,#65,#66,#67,#68,#69,#70,#316,#317,#318,#319,#320,#321,#322,#323,#324,#325,#326,#327,#328,#329,#330,#331,#332,#333,#334,#335,#336,#337,#338,#339,#340,#341,#342,#343,#344,#345,#346,#347,#348,#349,#350,#351,#352,#353,#354,#355,#356,#357,#358,#359,#360,#361,#362,#363,#364,#365,#367,#369,#372,#373,#375,#377,#380,#381,#383,#385,#388,#389,#391,#393,#396,#397,#399,#401,#404,#406,#409,#410,#416,#418,#421,#423,#426,#428,#431,#433));
#629=PRESENTATION_LAYER_ASSIGNMENT('9','',(#25));
ENDSEC;
END-ISO-10303-21;
