ISO-10303-21;
HEADER;
FILE_DESCRIPTION(('STEP AP203'),'1');
FILE_NAME('4011048_V RDZ flow 125-150.STP','2019-11-22T14:14:25',(' '),(' '),'Spatial InterOp 3D',' ',' ');
FILE_SCHEMA(('CONFIG_CONTROL_DESIGN'));
ENDSEC;
DATA;
#1=DESIGN_CONTEXT('',#27,'design');
#2=APPLICATION_PROTOCOL_DEFINITION('INTERNATIONAL STANDARD','config_control_design',1994,#27);
#3=PRODUCT_CATEGORY_RELATIONSHIP('NONE','NONE',#28,#29);
#4=DATE_AND_TIME(#30,#31);
#5=DATE_TIME_ROLE('creation_date');
#6=DATE_TIME_ROLE('classification_date');
#7=PERSON_AND_ORGANIZATION_ROLE('creator');
#8=PERSON_AND_ORGANIZATION_ROLE('design_supplier');
#9=PERSON_AND_ORGANIZATION_ROLE('classification_officer');
#10=PERSON_AND_ORGANIZATION_ROLE('design_owner');
#11=APPROVAL_PERSON_ORGANIZATION(#32,#33,#34);
#12=APPROVAL_DATE_TIME(#4,#33);
#13=CC_DESIGN_APPROVAL(#33,(#35,#36,#37));
#14=CC_DESIGN_DATE_AND_TIME_ASSIGNMENT(#4,#5,(#37));
#15=CC_DESIGN_DATE_AND_TIME_ASSIGNMENT(#4,#6,(#35));
#16=CC_DESIGN_PERSON_AND_ORGANIZATION_ASSIGNMENT(#32,#10,(#38));
#17=CC_DESIGN_PERSON_AND_ORGANIZATION_ASSIGNMENT(#32,#7,(#37));
#18=CC_DESIGN_PERSON_AND_ORGANIZATION_ASSIGNMENT(#32,#7,(#36));
#19=CC_DESIGN_PERSON_AND_ORGANIZATION_ASSIGNMENT(#32,#8,(#36));
#20=CC_DESIGN_SECURITY_CLASSIFICATION(#35,(#36));
#21=CC_DESIGN_PERSON_AND_ORGANIZATION_ASSIGNMENT(#32,#9,(#35));
#22=SHAPE_DEFINITION_REPRESENTATION(#39,#40);
#23= (GEOMETRIC_REPRESENTATION_CONTEXT(3)GLOBAL_UNCERTAINTY_ASSIGNED_CONTEXT((#43))GLOBAL_UNIT_ASSIGNED_CONTEXT((#45,#46,#47))REPRESENTATION_CONTEXT('NONE','WORKSPACE'));
#27=APPLICATION_CONTEXT('CONFIGURATION CONTROLLED 3D DESIGNS OF MECHANICAL PARTS AND ASSEMBLIES');
#28=PRODUCT_CATEGORY('part','NONE');
#29=PRODUCT_RELATED_PRODUCT_CATEGORY('detail',' ',(#38));
#30=CALENDAR_DATE(2019,22,10);
#31=LOCAL_TIME(15,14,25.0,#49);
#32=PERSON_AND_ORGANIZATION(#50,#51);
#33=APPROVAL(#52,'SOLID MODEL');
#34=APPROVAL_ROLE('APPROVED');
#35=SECURITY_CLASSIFICATION('','',#53);
#36=PRODUCT_DEFINITION_FORMATION_WITH_SPECIFIED_SOURCE(' ','NONE',#38,.NOT_KNOWN.);
#37=PRODUCT_DEFINITION('','NONE',#36,#1);
#38=PRODUCT('1','','PART--DESC',(#54));
#39=PRODUCT_DEFINITION_SHAPE('NONE','NONE',#37);
#40=ADVANCED_BREP_SHAPE_REPRESENTATION('1',(#55,#56),#23);
#43=UNCERTAINTY_MEASURE_WITH_UNIT(LENGTH_MEASURE(1.0E-06),#45,'','');
#45= (CONVERSION_BASED_UNIT('MILLIMETRE',#59)LENGTH_UNIT()NAMED_UNIT(#62));
#46= (NAMED_UNIT(#64)PLANE_ANGLE_UNIT()SI_UNIT($,.RADIAN.));
#47= (NAMED_UNIT(#64)SOLID_ANGLE_UNIT()SI_UNIT($,.STERADIAN.));
#49=COORDINATED_UNIVERSAL_TIME_OFFSET(1,0,.AHEAD.);
#50=PERSON('','UNSPECIFIED',$,$,$,$);
#51=ORGANIZATION('UNSPECIFIED','UNSPECIFIED','UNSPECIFIED');
#52=APPROVAL_STATUS('approved');
#53=SECURITY_CLASSIFICATION_LEVEL('unclassified');
#54=MECHANICAL_CONTEXT('',#27,'mechanical');
#55=MANIFOLD_SOLID_BREP('1',#70);
#56=AXIS2_PLACEMENT_3D('',#71,#72,#73);
#59=LENGTH_MEASURE_WITH_UNIT(LENGTH_MEASURE(1.0),#74);
#62=DIMENSIONAL_EXPONENTS(1.0,0.0,0.0,0.0,0.0,0.0,0.0);
#64=DIMENSIONAL_EXPONENTS(0.0,0.0,0.0,0.0,0.0,0.0,0.0);
#70=CLOSED_SHELL('',(#75,#76,#77,#78,#79,#80,#81,#82,#83,#84,#85,#86,#87,#88,#89,#90,#91,#92,#93));
#71=CARTESIAN_POINT('',(0.0,0.0,0.0));
#72=DIRECTION('',(0.0,0.0,1.0));
#73=DIRECTION('',(1.0,0.0,0.0));
#74= (NAMED_UNIT(#62)LENGTH_UNIT()SI_UNIT(.MILLI.,.METRE.));
#75=ADVANCED_FACE('',(#95,#96),#97,.F.);
#76=ADVANCED_FACE('',(#98,#99),#100,.T.);
#77=ADVANCED_FACE('',(#101,#102),#103,.T.);
#78=ADVANCED_FACE('',(#104),#105,.T.);
#79=ADVANCED_FACE('',(#106,#107),#108,.T.);
#80=ADVANCED_FACE('',(#109,#110),#111,.F.);
#81=ADVANCED_FACE('',(#112,#113),#114,.F.);
#82=ADVANCED_FACE('',(#115,#116),#117,.T.);
#83=ADVANCED_FACE('',(#118,#119),#120,.T.);
#84=ADVANCED_FACE('',(#121,#122),#123,.T.);
#85=ADVANCED_FACE('',(#124,#125),#126,.T.);
#86=ADVANCED_FACE('',(#127,#128),#129,.T.);
#87=ADVANCED_FACE('',(#130,#131),#132,.F.);
#88=ADVANCED_FACE('',(#133),#134,.T.);
#89=ADVANCED_FACE('',(#135,#136),#137,.F.);
#90=ADVANCED_FACE('',(#138,#139),#140,.T.);
#91=ADVANCED_FACE('',(#141,#142),#143,.T.);
#92=ADVANCED_FACE('',(#144,#145),#146,.T.);
#93=ADVANCED_FACE('',(#147,#148),#149,.F.);
#95=FACE_BOUND('',#150,.T.);
#96=FACE_BOUND('',#151,.T.);
#97=CONICAL_SURFACE('',#152,64.80672464064,0.00872664625996925);
#98=FACE_BOUND('',#153,.T.);
#99=FACE_OUTER_BOUND('',#154,.T.);
#100=PLANE('',#155);
#101=FACE_BOUND('',#156,.T.);
#102=FACE_BOUND('',#157,.T.);
#103=TOROIDAL_SURFACE('',#158,126.644204321431,63.844421382895);
#104=FACE_OUTER_BOUND('',#159,.T.);
#105=SURFACE_OF_REVOLUTION('',#160,#161);
#106=FACE_OUTER_BOUND('',#162,.T.);
#107=FACE_BOUND('',#163,.T.);
#108=PLANE('',#164);
#109=FACE_BOUND('',#165,.T.);
#110=FACE_BOUND('',#166,.T.);
#111=CONICAL_SURFACE('',#167,76.2567246406448,0.00872664625998197);
#112=FACE_BOUND('',#168,.T.);
#113=FACE_BOUND('',#169,.T.);
#114=CONICAL_SURFACE('',#170,76.4988040860582,0.0610865238198061);
#115=FACE_BOUND('',#171,.T.);
#116=FACE_BOUND('',#172,.T.);
#117=TOROIDAL_SURFACE('',#173,77.6822936892487,1.0);
#118=FACE_OUTER_BOUND('',#174,.T.);
#119=FACE_BOUND('',#175,.T.);
#120=PLANE('',#176);
#121=FACE_BOUND('',#177,.T.);
#122=FACE_BOUND('',#178,.T.);
#123=CONICAL_SURFACE('',#179,78.2003209019339,0.0087266462596003);
#124=FACE_BOUND('',#180,.T.);
#125=FACE_BOUND('',#181,.T.);
#126=TOROIDAL_SURFACE('',#182,77.1086887894099,1.0);
#127=FACE_BOUND('',#183,.T.);
#128=FACE_OUTER_BOUND('',#184,.T.);
#129=PLANE('',#185);
#130=FACE_BOUND('',#186,.T.);
#131=FACE_BOUND('',#187,.T.);
#132=TOROIDAL_SURFACE('',#188,76.71453244367,1.0);
#133=FACE_OUTER_BOUND('',#189,.T.);
#134=SURFACE_OF_REVOLUTION('',#190,#191);
#135=FACE_BOUND('',#192,.T.);
#136=FACE_BOUND('',#193,.T.);
#137=TOROIDAL_SURFACE('',#194,152.061765182628,85.4529781833799);
#138=FACE_BOUND('',#195,.T.);
#139=FACE_BOUND('',#196,.T.);
#140=CONICAL_SURFACE('',#197,66.5186755601806,0.00872664625996925);
#141=FACE_BOUND('',#198,.T.);
#142=FACE_OUTER_BOUND('',#199,.T.);
#143=PLANE('',#200);
#144=FACE_BOUND('',#201,.T.);
#145=FACE_BOUND('',#202,.T.);
#146=TOROIDAL_SURFACE('',#203,66.2322936892391,1.0);
#147=FACE_BOUND('',#204,.T.);
#148=FACE_BOUND('',#205,.T.);
#149=CONICAL_SURFACE('',#206,65.0488040860486,0.061086523819797);
#150=EDGE_LOOP('',(#207));
#151=EDGE_LOOP('',(#208));
#152=AXIS2_PLACEMENT_3D('',#209,#210,#211);
#153=EDGE_LOOP('',(#212));
#154=EDGE_LOOP('',(#213));
#155=AXIS2_PLACEMENT_3D('',#214,#215,#216);
#156=EDGE_LOOP('',(#217));
#157=EDGE_LOOP('',(#218));
#158=AXIS2_PLACEMENT_3D('',#219,#220,#221);
#159=EDGE_LOOP('',(#222,#223,#224,#225));
#160=B_SPLINE_CURVE_WITH_KNOTS('',3,(#226,#227,#228,#229,#230,#231,#232,#233,#234,#235),.UNSPECIFIED.,.F.,.F.,(4,1,1,1,1,1,1,4),(0.0,3.21033425152979,7.8328965818793,12.2034001834409,16.7674330783273,20.1109165629837,23.7621807081785,25.8623303870782),.UNSPECIFIED.);
#161=AXIS1_PLACEMENT('',#236,#237);
#162=EDGE_LOOP('',(#238));
#163=EDGE_LOOP('',(#239));
#164=AXIS2_PLACEMENT_3D('',#240,#241,#242);
#165=EDGE_LOOP('',(#243));
#166=EDGE_LOOP('',(#244));
#167=AXIS2_PLACEMENT_3D('',#245,#246,#247);
#168=EDGE_LOOP('',(#248));
#169=EDGE_LOOP('',(#249));
#170=AXIS2_PLACEMENT_3D('',#250,#251,#252);
#171=EDGE_LOOP('',(#253));
#172=EDGE_LOOP('',(#254));
#173=AXIS2_PLACEMENT_3D('',#255,#256,#257);
#174=EDGE_LOOP('',(#258));
#175=EDGE_LOOP('',(#259));
#176=AXIS2_PLACEMENT_3D('',#260,#261,#262);
#177=EDGE_LOOP('',(#263));
#178=EDGE_LOOP('',(#264));
#179=AXIS2_PLACEMENT_3D('',#265,#266,#267);
#180=EDGE_LOOP('',(#268));
#181=EDGE_LOOP('',(#269));
#182=AXIS2_PLACEMENT_3D('',#270,#271,#272);
#183=EDGE_LOOP('',(#273));
#184=EDGE_LOOP('',(#274));
#185=AXIS2_PLACEMENT_3D('',#275,#276,#277);
#186=EDGE_LOOP('',(#278));
#187=EDGE_LOOP('',(#279));
#188=AXIS2_PLACEMENT_3D('',#280,#281,#282);
#189=EDGE_LOOP('',(#283,#284,#285,#286));
#190=B_SPLINE_CURVE_WITH_KNOTS('',3,(#287,#288,#289,#290,#291,#292,#293),.UNSPECIFIED.,.F.,.F.,(4,1,1,1,4),(-19.0000113909326,-14.0116996886499,-9.01666140520641,-3.95356850320251,-0.0),.UNSPECIFIED.);
#191=AXIS1_PLACEMENT('',#294,#295);
#192=EDGE_LOOP('',(#296));
#193=EDGE_LOOP('',(#297));
#194=AXIS2_PLACEMENT_3D('',#298,#299,#300);
#195=EDGE_LOOP('',(#301));
#196=EDGE_LOOP('',(#302));
#197=AXIS2_PLACEMENT_3D('',#303,#304,#305);
#198=EDGE_LOOP('',(#306));
#199=EDGE_LOOP('',(#307));
#200=AXIS2_PLACEMENT_3D('',#308,#309,#310);
#201=EDGE_LOOP('',(#311));
#202=EDGE_LOOP('',(#312));
#203=AXIS2_PLACEMENT_3D('',#313,#314,#315);
#204=EDGE_LOOP('',(#316));
#205=EDGE_LOOP('',(#317));
#206=AXIS2_PLACEMENT_3D('',#318,#319,#320);
#207=ORIENTED_EDGE('',*,*,#321,.F.);
#208=ORIENTED_EDGE('',*,*,#322,.T.);
#209=CARTESIAN_POINT('',(-130.0,554.622097079107,0.0));
#210=DIRECTION('',(0.0,1.0,-0.0));
#211=DIRECTION('',(-1.0,0.0,0.0));
#212=ORIENTED_EDGE('',*,*,#323,.F.);
#213=ORIENTED_EDGE('',*,*,#321,.T.);
#214=CARTESIAN_POINT('',(-193.775,548.122097079107,0.0));
#215=DIRECTION('',(-9.2115489025698E-12,1.0,0.0));
#216=DIRECTION('',(-1.0,-9.2115489025698E-12,0.0));
#217=ORIENTED_EDGE('',*,*,#324,.F.);
#218=ORIENTED_EDGE('',*,*,#323,.T.);
#219=CARTESIAN_POINT('',(-130.0,547.955615008093,0.0));
#220=DIRECTION('',(0.0,1.0,0.0));
#221=DIRECTION('',(0.0,0.0,1.0));
#222=ORIENTED_EDGE('',*,*,#325,.T.);
#223=ORIENTED_EDGE('',*,*,#326,.F.);
#224=ORIENTED_EDGE('',*,*,#325,.F.);
#225=ORIENTED_EDGE('',*,*,#324,.T.);
#226=CARTESIAN_POINT('',(-204.09192898256,498.122097079098,0.0));
#227=CARTESIAN_POINT('',(-203.956196056547,499.183571672611,0.0));
#228=CARTESIAN_POINT('',(-203.625021204051,501.773464208353,0.0));
#229=CARTESIAN_POINT('',(-203.026672048166,505.797606778913,0.0));
#230=CARTESIAN_POINT('',(-202.119227168873,510.229665795557,0.0));
#231=CARTESIAN_POINT('',(-200.961335019532,514.156361803099,0.0));
#232=CARTESIAN_POINT('',(-199.880921009848,517.85741501198,0.0));
#233=CARTESIAN_POINT('',(-198.744217894383,520.670965476047,0.0));
#234=CARTESIAN_POINT('',(-198.072693931176,522.466464191821,0.0));
#235=CARTESIAN_POINT('',(-197.827484513312,523.122097079095,0.0));
#236=CARTESIAN_POINT('',(-130.0,498.122097079098,0.0));
#237=DIRECTION('',(-0.0,-1.0,-0.0));
#238=ORIENTED_EDGE('',*,*,#327,.F.);
#239=ORIENTED_EDGE('',*,*,#326,.T.);
#240=CARTESIAN_POINT('',(-205.14596449128,498.122097079108,0.0));
#241=DIRECTION('',(-9.4915604234724E-12,-1.0,0.0));
#242=DIRECTION('',(1.0,-9.4915604234724E-12,0.0));
#243=ORIENTED_EDGE('',*,*,#328,.F.);
#244=ORIENTED_EDGE('',*,*,#327,.T.);
#245=CARTESIAN_POINT('',(-130.0,491.622097078561,0.0));
#246=DIRECTION('',(-0.0,-1.0,-0.0));
#247=DIRECTION('',(-1.0,0.0,0.0));
#248=ORIENTED_EDGE('',*,*,#329,.F.);
#249=ORIENTED_EDGE('',*,*,#328,.T.);
#250=CARTESIAN_POINT('',(-130.0,482.091572808237,0.0));
#251=DIRECTION('',(-0.0,-1.0,-0.0));
#252=DIRECTION('',(-1.0,0.0,0.0));
#253=ORIENTED_EDGE('',*,*,#330,.F.);
#254=ORIENTED_EDGE('',*,*,#329,.T.);
#255=CARTESIAN_POINT('',(-130.0,479.122097078004,0.0));
#256=DIRECTION('',(0.0,1.0,0.0));
#257=DIRECTION('',(0.0,0.0,1.0));
#258=ORIENTED_EDGE('',*,*,#331,.F.);
#259=ORIENTED_EDGE('',*,*,#330,.T.);
#260=CARTESIAN_POINT('',(-207.987142391227,478.122097078556,0.0));
#261=DIRECTION('',(-1.81075543459655E-09,-1.0,0.0));
#262=DIRECTION('',(1.0,-1.81075543459655E-09,0.0));
#263=ORIENTED_EDGE('',*,*,#332,.F.);
#264=ORIENTED_EDGE('',*,*,#331,.T.);
#265=CARTESIAN_POINT('',(-130.0,488.626460346852,0.0));
#266=DIRECTION('',(-0.0,-1.0,-0.0));
#267=DIRECTION('',(-1.0,0.0,0.0));
#268=ORIENTED_EDGE('',*,*,#333,.F.);
#269=ORIENTED_EDGE('',*,*,#332,.T.);
#270=CARTESIAN_POINT('',(-130.0,499.122097079098,0.0));
#271=DIRECTION('',(0.0,1.0,0.0));
#272=DIRECTION('',(0.0,0.0,1.0));
#273=ORIENTED_EDGE('',*,*,#334,.F.);
#274=ORIENTED_EDGE('',*,*,#333,.T.);
#275=CARTESIAN_POINT('',(-206.91161061654,500.122097079098,0.0));
#276=DIRECTION('',(0.0,1.0,0.0));
#277=DIRECTION('',(-1.0,0.0,0.0));
#278=ORIENTED_EDGE('',*,*,#335,.F.);
#279=ORIENTED_EDGE('',*,*,#334,.T.);
#280=CARTESIAN_POINT('',(-130.0,501.122097079098,0.0));
#281=DIRECTION('',(0.0,1.0,0.0));
#282=DIRECTION('',(0.0,0.0,1.0));
#283=ORIENTED_EDGE('',*,*,#336,.T.);
#284=ORIENTED_EDGE('',*,*,#337,.F.);
#285=ORIENTED_EDGE('',*,*,#336,.F.);
#286=ORIENTED_EDGE('',*,*,#335,.T.);
#287=CARTESIAN_POINT('',(-201.337530682071,519.438322057996,0.0));
#288=CARTESIAN_POINT('',(-201.857191273129,517.858419315466,0.0));
#289=CARTESIAN_POINT('',(-202.897213201178,514.696483381338,0.0));
#290=CARTESIAN_POINT('',(-204.141960216381,509.834436860913,0.0));
#291=CARTESIAN_POINT('',(-205.077706060541,505.256240145596,0.0));
#292=CARTESIAN_POINT('',(-205.527369666674,502.284179769555,0.0));
#293=CARTESIAN_POINT('',(-205.724535312621,500.981009586681,0.0));
#294=CARTESIAN_POINT('',(-130.0,519.438322057996,0.0));
#295=DIRECTION('',(-0.0,-1.0,-0.0));
#296=ORIENTED_EDGE('',*,*,#338,.F.);
#297=ORIENTED_EDGE('',*,*,#337,.T.);
#298=CARTESIAN_POINT('',(-130.0,547.470614948665,0.0));
#299=DIRECTION('',(0.0,1.0,0.0));
#300=DIRECTION('',(0.0,0.0,1.0));
#301=ORIENTED_EDGE('',*,*,#339,.F.);
#302=ORIENTED_EDGE('',*,*,#338,.T.);
#303=CARTESIAN_POINT('',(-130.0,557.42350179011,0.0));
#304=DIRECTION('',(-0.0,-1.0,-0.0));
#305=DIRECTION('',(-1.0,0.0,0.0));
#306=ORIENTED_EDGE('',*,*,#340,.F.);
#307=ORIENTED_EDGE('',*,*,#339,.T.);
#308=CARTESIAN_POINT('',(-196.328802011393,568.122097079115,0.0));
#309=DIRECTION('',(-1.53140046101585E-11,1.0,0.0));
#310=DIRECTION('',(-1.0,-1.53140046101585E-11,0.0));
#311=ORIENTED_EDGE('',*,*,#341,.F.);
#312=ORIENTED_EDGE('',*,*,#340,.T.);
#313=CARTESIAN_POINT('',(-130.0,567.122097079116,0.0));
#314=DIRECTION('',(0.0,1.0,0.0));
#315=DIRECTION('',(0.0,0.0,1.0));
#316=ORIENTED_EDGE('',*,*,#322,.F.);
#317=ORIENTED_EDGE('',*,*,#341,.T.);
#318=CARTESIAN_POINT('',(-130.0,564.152621348884,0.0));
#319=DIRECTION('',(0.0,1.0,-0.0));
#320=DIRECTION('',(-1.0,0.0,0.0));
#321=EDGE_CURVE('',#342,#342,#343,.T.);
#322=EDGE_CURVE('',#344,#344,#345,.T.);
#323=EDGE_CURVE('',#346,#346,#347,.T.);
#324=EDGE_CURVE('',#348,#348,#349,.T.);
#325=EDGE_CURVE('',#348,#350,#351,.T.);
#326=EDGE_CURVE('',#350,#350,#352,.T.);
#327=EDGE_CURVE('',#353,#353,#354,.T.);
#328=EDGE_CURVE('',#355,#355,#356,.T.);
#329=EDGE_CURVE('',#357,#357,#358,.T.);
#330=EDGE_CURVE('',#359,#359,#360,.T.);
#331=EDGE_CURVE('',#361,#361,#362,.T.);
#332=EDGE_CURVE('',#363,#363,#364,.T.);
#333=EDGE_CURVE('',#365,#365,#366,.T.);
#334=EDGE_CURVE('',#367,#367,#368,.T.);
#335=EDGE_CURVE('',#369,#369,#370,.T.);
#336=EDGE_CURVE('',#369,#371,#372,.T.);
#337=EDGE_CURVE('',#371,#371,#373,.T.);
#338=EDGE_CURVE('',#374,#374,#375,.T.);
#339=EDGE_CURVE('',#376,#376,#377,.T.);
#340=EDGE_CURVE('',#378,#378,#379,.T.);
#341=EDGE_CURVE('',#380,#380,#381,.T.);
#342=VERTEX_POINT('',#382);
#343=CIRCLE('',#383,64.75);
#344=VERTEX_POINT('',#384);
#345=CIRCLE('',#385,64.86344928128);
#346=VERTEX_POINT('',#386);
#347=CIRCLE('',#387,62.7999999999995);
#348=VERTEX_POINT('',#388);
#349=CIRCLE('',#389,67.8274845133121);
#350=VERTEX_POINT('',#390);
#351=B_SPLINE_CURVE_WITH_KNOTS('',3,(#391,#392,#393,#394,#395,#396,#397,#398,#399,#400),.UNSPECIFIED.,.F.,.F.,(4,1,1,1,1,1,1,4),(-25.8623303870782,-23.7621807081785,-20.1109165629837,-16.7674330783273,-12.2034001834409,-7.8328965818793,-3.21033425152979,-0.0),.UNSPECIFIED.);
#352=CIRCLE('',#401,74.0919289825598);
#353=VERTEX_POINT('',#402);
#354=CIRCLE('',#403,76.2);
#355=VERTEX_POINT('',#404);
#356=CIRCLE('',#405,76.3134492812896);
#357=VERTEX_POINT('',#406);
#358=CIRCLE('',#407,76.6841588908268);
#359=VERTEX_POINT('',#408);
#360=CIRCLE('',#409,77.6822936910595);
#361=VERTEX_POINT('',#410);
#362=CIRCLE('',#411,78.2919910913937);
#363=VERTEX_POINT('',#412);
#364=CIRCLE('',#413,78.1086507124741);
#365=VERTEX_POINT('',#414);
#366=CIRCLE('',#415,77.1086887894099);
#367=VERTEX_POINT('',#416);
#368=CIRCLE('',#417,76.71453244367);
#369=VERTEX_POINT('',#418);
#370=CIRCLE('',#419,75.7245353126208);
#371=VERTEX_POINT('',#420);
#372=B_SPLINE_CURVE_WITH_KNOTS('',3,(#421,#422,#423,#424,#425,#426,#427),.UNSPECIFIED.,.F.,.F.,(4,1,1,1,4),(0.0,3.95356850320251,9.01666140520641,14.0116996886499,19.0000113909326),.UNSPECIFIED.);
#373=CIRCLE('',#428,71.337530682071);
#374=VERTEX_POINT('',#429);
#375=CIRCLE('',#430,66.6120407868146);
#376=VERTEX_POINT('',#431);
#377=CIRCLE('',#432,66.4253103335466);
#378=VERTEX_POINT('',#433);
#379=CIRCLE('',#434,66.2322936892391);
#380=VERTEX_POINT('',#435);
#381=CIRCLE('',#436,65.2341588908172);
#382=CARTESIAN_POINT('',(-194.75,548.122097079098,0.0));
#383=AXIS2_PLACEMENT_3D('',#437,#438,#439);
#384=CARTESIAN_POINT('',(-194.86344928128,561.122097079116,0.0));
#385=AXIS2_PLACEMENT_3D('',#440,#441,#442);
#386=CARTESIAN_POINT('',(-192.8,548.122097079116,0.0));
#387=AXIS2_PLACEMENT_3D('',#443,#444,#445);
#388=CARTESIAN_POINT('',(-197.827484513312,523.122097079095,0.0));
#389=AXIS2_PLACEMENT_3D('',#446,#447,#448);
#390=CARTESIAN_POINT('',(-204.09192898256,498.122097079098,0.0));
#391=CARTESIAN_POINT('',(-197.827484513312,523.122097079095,0.0));
#392=CARTESIAN_POINT('',(-198.072693931176,522.466464191821,0.0));
#393=CARTESIAN_POINT('',(-198.744217894383,520.670965476047,0.0));
#394=CARTESIAN_POINT('',(-199.880921009848,517.85741501198,0.0));
#395=CARTESIAN_POINT('',(-200.961335019532,514.156361803099,0.0));
#396=CARTESIAN_POINT('',(-202.119227168873,510.229665795557,0.0));
#397=CARTESIAN_POINT('',(-203.026672048166,505.797606778913,0.0));
#398=CARTESIAN_POINT('',(-203.625021204051,501.773464208353,0.0));
#399=CARTESIAN_POINT('',(-203.956196056547,499.183571672611,0.0));
#400=CARTESIAN_POINT('',(-204.09192898256,498.122097079098,0.0));
#401=AXIS2_PLACEMENT_3D('',#449,#450,#451);
#402=CARTESIAN_POINT('',(-206.2,498.122097079118,0.0));
#403=AXIS2_PLACEMENT_3D('',#452,#453,#454);
#404=CARTESIAN_POINT('',(-206.31344928129,485.122097078004,0.0));
#405=AXIS2_PLACEMENT_3D('',#455,#456,#457);
#406=CARTESIAN_POINT('',(-206.684158890827,479.061048538469,0.0));
#407=AXIS2_PLACEMENT_3D('',#458,#459,#460);
#408=CARTESIAN_POINT('',(-207.682293691059,478.122097078004,0.0));
#409=AXIS2_PLACEMENT_3D('',#461,#462,#463);
#410=CARTESIAN_POINT('',(-208.291991091394,478.122097079108,0.0));
#411=AXIS2_PLACEMENT_3D('',#464,#465,#466);
#412=CARTESIAN_POINT('',(-208.108650712474,499.130823614596,0.0));
#413=AXIS2_PLACEMENT_3D('',#467,#468,#469);
#414=CARTESIAN_POINT('',(-207.10868878941,500.122097079098,0.0));
#415=AXIS2_PLACEMENT_3D('',#470,#471,#472);
#416=CARTESIAN_POINT('',(-206.71453244367,500.122097079098,0.0));
#417=AXIS2_PLACEMENT_3D('',#473,#474,#475);
#418=CARTESIAN_POINT('',(-205.724535312621,500.981009586681,0.0));
#419=AXIS2_PLACEMENT_3D('',#476,#477,#478);
#420=CARTESIAN_POINT('',(-201.337530682071,519.438322057996,0.0));
#421=CARTESIAN_POINT('',(-205.724535312621,500.981009586681,0.0));
#422=CARTESIAN_POINT('',(-205.527369666674,502.284179769555,0.0));
#423=CARTESIAN_POINT('',(-205.077706060541,505.256240145596,0.0));
#424=CARTESIAN_POINT('',(-204.141960216381,509.834436860913,0.0));
#425=CARTESIAN_POINT('',(-202.897213201178,514.696483381338,0.0));
#426=CARTESIAN_POINT('',(-201.857191273129,517.858419315466,0.0));
#427=CARTESIAN_POINT('',(-201.337530682071,519.438322057996,0.0));
#428=AXIS2_PLACEMENT_3D('',#479,#480,#481);
#429=CARTESIAN_POINT('',(-196.612040786815,546.724906501106,0.0));
#430=AXIS2_PLACEMENT_3D('',#482,#483,#484);
#431=CARTESIAN_POINT('',(-196.425310333547,568.122097079113,0.0));
#432=AXIS2_PLACEMENT_3D('',#485,#486,#487);
#433=CARTESIAN_POINT('',(-196.232293689239,568.122097079116,0.0));
#434=AXIS2_PLACEMENT_3D('',#488,#489,#490);
#435=CARTESIAN_POINT('',(-195.234158890817,567.183145618651,0.0));
#436=AXIS2_PLACEMENT_3D('',#491,#492,#493);
#437=CARTESIAN_POINT('',(-130.0,548.122097079098,0.0));
#438=DIRECTION('',(0.0,1.0,0.0));
#439=DIRECTION('',(-1.0,0.0,0.0));
#440=CARTESIAN_POINT('',(-130.0,561.122097079116,0.0));
#441=DIRECTION('',(0.0,1.0,0.0));
#442=DIRECTION('',(-1.0,0.0,0.0));
#443=CARTESIAN_POINT('',(-130.0,548.122097079116,0.0));
#444=DIRECTION('',(0.0,1.0,0.0));
#445=DIRECTION('',(-1.0,0.0,0.0));
#446=CARTESIAN_POINT('',(-130.0,523.122097079095,0.0));
#447=DIRECTION('',(0.0,1.0,0.0));
#448=DIRECTION('',(-1.0,0.0,0.0));
#449=CARTESIAN_POINT('',(-130.0,498.122097079098,0.0));
#450=DIRECTION('',(0.0,1.0,0.0));
#451=DIRECTION('',(-1.0,0.0,0.0));
#452=CARTESIAN_POINT('',(-130.0,498.122097079118,0.0));
#453=DIRECTION('',(0.0,1.0,0.0));
#454=DIRECTION('',(-1.0,0.0,0.0));
#455=CARTESIAN_POINT('',(-130.0,485.122097078004,0.0));
#456=DIRECTION('',(0.0,1.0,0.0));
#457=DIRECTION('',(-1.0,0.0,0.0));
#458=CARTESIAN_POINT('',(-130.0,479.061048538469,0.0));
#459=DIRECTION('',(0.0,1.0,0.0));
#460=DIRECTION('',(-1.0,0.0,0.0));
#461=CARTESIAN_POINT('',(-130.0,478.122097078004,0.0));
#462=DIRECTION('',(0.0,1.0,0.0));
#463=DIRECTION('',(-1.0,0.0,0.0));
#464=CARTESIAN_POINT('',(-130.0,478.122097079108,0.0));
#465=DIRECTION('',(0.0,1.0,0.0));
#466=DIRECTION('',(-1.0,0.0,0.0));
#467=CARTESIAN_POINT('',(-130.0,499.130823614596,0.0));
#468=DIRECTION('',(0.0,1.0,0.0));
#469=DIRECTION('',(-1.0,0.0,0.0));
#470=CARTESIAN_POINT('',(-130.0,500.122097079098,0.0));
#471=DIRECTION('',(0.0,1.0,0.0));
#472=DIRECTION('',(-1.0,0.0,0.0));
#473=CARTESIAN_POINT('',(-130.0,500.122097079098,0.0));
#474=DIRECTION('',(0.0,1.0,0.0));
#475=DIRECTION('',(-1.0,0.0,0.0));
#476=CARTESIAN_POINT('',(-130.0,500.981009586681,0.0));
#477=DIRECTION('',(0.0,1.0,0.0));
#478=DIRECTION('',(-1.0,0.0,0.0));
#479=CARTESIAN_POINT('',(-130.0,519.438322057996,0.0));
#480=DIRECTION('',(0.0,1.0,0.0));
#481=DIRECTION('',(-1.0,0.0,0.0));
#482=CARTESIAN_POINT('',(-130.0,546.724906501106,0.0));
#483=DIRECTION('',(0.0,1.0,0.0));
#484=DIRECTION('',(-1.0,0.0,0.0));
#485=CARTESIAN_POINT('',(-130.0,568.122097079113,0.0));
#486=DIRECTION('',(0.0,1.0,0.0));
#487=DIRECTION('',(-1.0,0.0,0.0));
#488=CARTESIAN_POINT('',(-130.0,568.122097079116,0.0));
#489=DIRECTION('',(0.0,1.0,0.0));
#490=DIRECTION('',(-1.0,0.0,0.0));
#491=CARTESIAN_POINT('',(-130.0,567.183145618651,0.0));
#492=DIRECTION('',(0.0,1.0,0.0));
#493=DIRECTION('',(-1.0,0.0,0.0));
ENDSEC;
END-ISO-10303-21;
