ISO-10303-21;
HEADER;
FILE_DESCRIPTION(('STEP AP242'),'1');
FILE_NAME('4052016_V R-VBS 125 Rohrverbinder.STP','2026-02-23T14:54:15',(' '),(' '),'Spatial InterOp 3D',' ',' ');
FILE_SCHEMA(('AP242_MANAGED_MODEL_BASED_3D_ENGINEERING_MIM_LF  {1 0 10303 442 1 1 4}'));
ENDSEC;
DATA;
#1=PRODUCT_DEFINITION_CONTEXT('',#9,'design');
#2=APPLICATION_PROTOCOL_DEFINITION('INTERNATIONAL STANDARD','ap242_managed_model_based_3d_engineering',2014,#9);
#3=PRODUCT_CATEGORY_RELATIONSHIP('NONE','NONE',#10,#11);
#4=SHAPE_DEFINITION_REPRESENTATION(#12,#13);
#5= (GEOMETRIC_REPRESENTATION_CONTEXT(3)GLOBAL_UNCERTAINTY_ASSIGNED_CONTEXT((#16))GLOBAL_UNIT_ASSIGNED_CONTEXT((#18,#19,#20))REPRESENTATION_CONTEXT('NONE','WORKSPACE'));
#9=APPLICATION_CONTEXT('managed model based 3d engineering');
#10=PRODUCT_CATEGORY('part','NONE');
#11=PRODUCT_RELATED_PRODUCT_CATEGORY('detail',' ',(#22));
#12=PRODUCT_DEFINITION_SHAPE('NONE','NONE',#23);
#13=ADVANCED_BREP_SHAPE_REPRESENTATION('1',(#24,#25),#5);
#16=UNCERTAINTY_MEASURE_WITH_UNIT(LENGTH_MEASURE(1.0E-06),#18,'','');
#18= (CONVERSION_BASED_UNIT('MILLIMETRE',#28)LENGTH_UNIT()NAMED_UNIT(#31));
#19= (NAMED_UNIT(#33)PLANE_ANGLE_UNIT()SI_UNIT($,.RADIAN.));
#20= (NAMED_UNIT(#33)SOLID_ANGLE_UNIT()SI_UNIT($,.STERADIAN.));
#22=PRODUCT('1','','PART--DESC',(#39));
#23=PRODUCT_DEFINITION('','NONE',#40,#1);
#24=MANIFOLD_SOLID_BREP('1',#41);
#25=AXIS2_PLACEMENT_3D('',#42,#43,#44);
#28=LENGTH_MEASURE_WITH_UNIT(LENGTH_MEASURE(1.0),#45);
#31=DIMENSIONAL_EXPONENTS(1.0,0.0,0.0,0.0,0.0,0.0,0.0);
#33=DIMENSIONAL_EXPONENTS(0.0,0.0,0.0,0.0,0.0,0.0,0.0);
#39=PRODUCT_CONTEXT('',#9,'mechanical');
#40=PRODUCT_DEFINITION_FORMATION_WITH_SPECIFIED_SOURCE(' ','NONE',#22,.NOT_KNOWN.);
#41=CLOSED_SHELL('',(#46,#47,#48,#49,#50,#51,#52,#53,#54,#55,#56,#57,#58,#59,#60,#61,#62,#63,#64,#65));
#42=CARTESIAN_POINT('',(0.0,0.0,0.0));
#43=DIRECTION('',(0.0,0.0,1.0));
#44=DIRECTION('',(1.0,0.0,0.0));
#45= (NAMED_UNIT(#31)LENGTH_UNIT()SI_UNIT(.MILLI.,.METRE.));
#46=ADVANCED_FACE('',(#67),#68,.F.);
#47=ADVANCED_FACE('',(#69),#70,.F.);
#48=ADVANCED_FACE('',(#71),#72,.T.);
#49=ADVANCED_FACE('',(#73),#74,.T.);
#50=ADVANCED_FACE('',(#75),#76,.T.);
#51=ADVANCED_FACE('',(#77),#78,.F.);
#52=ADVANCED_FACE('',(#79),#80,.F.);
#53=ADVANCED_FACE('',(#81),#82,.F.);
#54=ADVANCED_FACE('',(#83),#84,.F.);
#55=ADVANCED_FACE('',(#85,#86),#87,.F.);
#56=ADVANCED_FACE('',(#88),#89,.F.);
#57=ADVANCED_FACE('',(#90),#91,.F.);
#58=ADVANCED_FACE('',(#92),#93,.T.);
#59=ADVANCED_FACE('',(#94,#95),#96,.F.);
#60=ADVANCED_FACE('',(#97),#98,.T.);
#61=ADVANCED_FACE('',(#99,#100),#101,.F.);
#62=ADVANCED_FACE('',(#102),#103,.T.);
#63=ADVANCED_FACE('',(#104),#105,.F.);
#64=ADVANCED_FACE('',(#106),#107,.F.);
#65=ADVANCED_FACE('',(#108,#109),#110,.F.);
#67=FACE_OUTER_BOUND('',#111,.T.);
#68=CONICAL_SURFACE('',#112,64.8405412533292,0.00872664625998197);
#69=FACE_OUTER_BOUND('',#113,.T.);
#70=CONICAL_SURFACE('',#114,65.130794494306,0.0610865238198061);
#71=FACE_OUTER_BOUND('',#115,.T.);
#72=TOROIDAL_SURFACE('',#116,65.8295738811646,0.5);
#73=FACE_OUTER_BOUND('',#117,.T.);
#74=CONICAL_SURFACE('',#118,67.1242068400921,0.00698131700796804);
#75=FACE_OUTER_BOUND('',#119,.T.);
#76=TOROIDAL_SURFACE('',#120,65.8295738811646,0.5);
#77=FACE_OUTER_BOUND('',#121,.T.);
#78=CONICAL_SURFACE('',#122,65.130794494306,0.0610865238198006);
#79=FACE_OUTER_BOUND('',#123,.T.);
#80=CONICAL_SURFACE('',#124,64.8405412533292,0.00872664625998197);
#81=FACE_OUTER_BOUND('',#125,.T.);
#82=CYLINDRICAL_SURFACE('',#126,63.25);
#83=FACE_OUTER_BOUND('',#127,.T.);
#84=CYLINDRICAL_SURFACE('',#128,63.25);
#85=FACE_OUTER_BOUND('',#129,.T.);
#86=FACE_BOUND('',#130,.T.);
#87=PLANE('',#131);
#88=FACE_OUTER_BOUND('',#132,.T.);
#89=CONICAL_SURFACE('',#133,64.8405412533292,0.00872664625998197);
#90=FACE_OUTER_BOUND('',#134,.T.);
#91=CONICAL_SURFACE('',#135,65.130794494306,0.0610865238198006);
#92=FACE_OUTER_BOUND('',#136,.T.);
#93=TOROIDAL_SURFACE('',#137,65.8295738811646,0.5);
#94=FACE_OUTER_BOUND('',#138,.T.);
#95=FACE_BOUND('',#139,.T.);
#96=PLANE('',#140);
#97=FACE_OUTER_BOUND('',#141,.T.);
#98=CONICAL_SURFACE('',#142,67.1242068400921,0.00698131700796804);
#99=FACE_OUTER_BOUND('',#143,.T.);
#100=FACE_BOUND('',#144,.T.);
#101=PLANE('',#145);
#102=FACE_OUTER_BOUND('',#146,.T.);
#103=TOROIDAL_SURFACE('',#147,65.8295738811646,0.5);
#104=FACE_OUTER_BOUND('',#148,.T.);
#105=CONICAL_SURFACE('',#149,65.130794494306,0.0610865238198061);
#106=FACE_OUTER_BOUND('',#150,.T.);
#107=CONICAL_SURFACE('',#151,64.8405412533292,0.00872664625998197);
#108=FACE_OUTER_BOUND('',#152,.T.);
#109=FACE_BOUND('',#153,.T.);
#110=PLANE('',#154);
#111=EDGE_LOOP('',(#155,#156,#157,#158));
#112=AXIS2_PLACEMENT_3D('',#159,#160,#161);
#113=EDGE_LOOP('',(#162,#163,#164,#165,#166));
#114=AXIS2_PLACEMENT_3D('',#167,#168,#169);
#115=EDGE_LOOP('',(#170,#171,#172,#173,#174));
#116=AXIS2_PLACEMENT_3D('',#175,#176,#177);
#117=EDGE_LOOP('',(#178,#179,#180,#181));
#118=AXIS2_PLACEMENT_3D('',#182,#183,#184);
#119=EDGE_LOOP('',(#185,#186,#187,#188,#189));
#120=AXIS2_PLACEMENT_3D('',#190,#191,#192);
#121=EDGE_LOOP('',(#193,#194,#195,#196,#197));
#122=AXIS2_PLACEMENT_3D('',#198,#199,#200);
#123=EDGE_LOOP('',(#201,#202,#203,#204));
#124=AXIS2_PLACEMENT_3D('',#205,#206,#207);
#125=EDGE_LOOP('',(#208,#209,#210,#211));
#126=AXIS2_PLACEMENT_3D('',#212,#213,#214);
#127=EDGE_LOOP('',(#215,#216,#217,#218));
#128=AXIS2_PLACEMENT_3D('',#219,#220,#221);
#129=EDGE_LOOP('',(#222,#223));
#130=EDGE_LOOP('',(#224,#225));
#131=AXIS2_PLACEMENT_3D('',#226,#227,#228);
#132=EDGE_LOOP('',(#229,#230,#231,#232));
#133=AXIS2_PLACEMENT_3D('',#233,#234,#235);
#134=EDGE_LOOP('',(#236,#237,#238,#239,#240));
#135=AXIS2_PLACEMENT_3D('',#241,#242,#243);
#136=EDGE_LOOP('',(#244,#245,#246,#247,#248));
#137=AXIS2_PLACEMENT_3D('',#249,#250,#251);
#138=EDGE_LOOP('',(#252,#253));
#139=EDGE_LOOP('',(#254,#255));
#140=AXIS2_PLACEMENT_3D('',#256,#257,#258);
#141=EDGE_LOOP('',(#259,#260,#261,#262));
#142=AXIS2_PLACEMENT_3D('',#263,#264,#265);
#143=EDGE_LOOP('',(#266,#267));
#144=EDGE_LOOP('',(#268,#269,#270));
#145=AXIS2_PLACEMENT_3D('',#271,#272,#273);
#146=EDGE_LOOP('',(#274,#275,#276,#277,#278,#279));
#147=AXIS2_PLACEMENT_3D('',#280,#281,#282);
#148=EDGE_LOOP('',(#283,#284,#285,#286,#287));
#149=AXIS2_PLACEMENT_3D('',#288,#289,#290);
#150=EDGE_LOOP('',(#291,#292,#293,#294));
#151=AXIS2_PLACEMENT_3D('',#295,#296,#297);
#152=EDGE_LOOP('',(#298,#299));
#153=EDGE_LOOP('',(#300,#301));
#154=AXIS2_PLACEMENT_3D('',#302,#303,#304);
#155=ORIENTED_EDGE('',*,*,#305,.F.);
#156=ORIENTED_EDGE('',*,*,#306,.T.);
#157=ORIENTED_EDGE('',*,*,#307,.F.);
#158=ORIENTED_EDGE('',*,*,#308,.F.);
#159=CARTESIAN_POINT('',(40.747097079111,1.30398802866694E-10,-0.169999999999987));
#160=DIRECTION('',(1.0,-1.94336474737746E-15,-0.0));
#161=DIRECTION('',(-1.94336474737746E-15,-1.0,0.0));
#162=ORIENTED_EDGE('',*,*,#309,.F.);
#163=ORIENTED_EDGE('',*,*,#308,.T.);
#164=ORIENTED_EDGE('',*,*,#310,.F.);
#165=ORIENTED_EDGE('',*,*,#311,.F.);
#166=ORIENTED_EDGE('',*,*,#312,.F.);
#167=CARTESIAN_POINT('',(54.387359214,1.30398802866694E-10,-0.169999999999987));
#168=DIRECTION('',(1.0,-1.94336474737746E-15,-0.0));
#169=DIRECTION('',(-1.94336474737746E-15,-1.0,0.0));
#170=ORIENTED_EDGE('',*,*,#313,.F.);
#171=ORIENTED_EDGE('',*,*,#314,.F.);
#172=ORIENTED_EDGE('',*,*,#315,.F.);
#173=ORIENTED_EDGE('',*,*,#311,.T.);
#174=ORIENTED_EDGE('',*,*,#316,.T.);
#175=CARTESIAN_POINT('',(57.622097079116,1.30398802866694E-10,-0.169999999999987));
#176=DIRECTION('',(1.0,-1.94336474737746E-15,0.0));
#177=DIRECTION('',(0.0,0.0,-1.0));
#178=ORIENTED_EDGE('',*,*,#317,.F.);
#179=ORIENTED_EDGE('',*,*,#318,.F.);
#180=ORIENTED_EDGE('',*,*,#319,.F.);
#181=ORIENTED_EDGE('',*,*,#320,.T.);
#182=CARTESIAN_POINT('',(28.872097079102,1.30398802866694E-10,-0.169999999999987));
#183=DIRECTION('',(-1.0,1.94336474737746E-15,-0.0));
#184=DIRECTION('',(-1.94336474737746E-15,-1.0,0.0));
#185=ORIENTED_EDGE('',*,*,#321,.F.);
#186=ORIENTED_EDGE('',*,*,#322,.F.);
#187=ORIENTED_EDGE('',*,*,#323,.F.);
#188=ORIENTED_EDGE('',*,*,#324,.F.);
#189=ORIENTED_EDGE('',*,*,#325,.T.);
#190=CARTESIAN_POINT('',(0.122097079098012,1.304982788497E-10,-0.169999999999987));
#191=DIRECTION('',(1.0,-1.94336474737746E-15,0.0));
#192=DIRECTION('',(0.0,0.0,-1.0));
#193=ORIENTED_EDGE('',*,*,#326,.F.);
#194=ORIENTED_EDGE('',*,*,#327,.T.);
#195=ORIENTED_EDGE('',*,*,#323,.T.);
#196=ORIENTED_EDGE('',*,*,#328,.F.);
#197=ORIENTED_EDGE('',*,*,#329,.F.);
#198=CARTESIAN_POINT('',(3.35683494421403,1.304982788497E-10,-0.169999999999987));
#199=DIRECTION('',(-1.0,1.94336474737746E-15,-0.0));
#200=DIRECTION('',(-1.94336474737746E-15,-1.0,0.0));
#201=ORIENTED_EDGE('',*,*,#330,.F.);
#202=ORIENTED_EDGE('',*,*,#329,.T.);
#203=ORIENTED_EDGE('',*,*,#331,.F.);
#204=ORIENTED_EDGE('',*,*,#332,.F.);
#205=CARTESIAN_POINT('',(16.997097079102,1.304982788497E-10,-0.169999999999987));
#206=DIRECTION('',(-1.0,1.94336474737746E-15,-0.0));
#207=DIRECTION('',(-1.94336474737746E-15,-1.0,0.0));
#208=ORIENTED_EDGE('',*,*,#333,.F.);
#209=ORIENTED_EDGE('',*,*,#334,.T.);
#210=ORIENTED_EDGE('',*,*,#335,.F.);
#211=ORIENTED_EDGE('',*,*,#336,.F.);
#212=CARTESIAN_POINT('',(28.872097079107,1.30398802866694E-10,-0.169999999999987));
#213=DIRECTION('',(1.0,-1.94336474737746E-15,0.0));
#214=DIRECTION('',(-1.94336474737746E-15,-1.0,0.0));
#215=ORIENTED_EDGE('',*,*,#333,.T.);
#216=ORIENTED_EDGE('',*,*,#337,.F.);
#217=ORIENTED_EDGE('',*,*,#335,.T.);
#218=ORIENTED_EDGE('',*,*,#338,.T.);
#219=CARTESIAN_POINT('',(28.872097079107,1.30398802866694E-10,-0.169999999999987));
#220=DIRECTION('',(1.0,-1.94336474737746E-15,0.0));
#221=DIRECTION('',(-1.94336474737746E-15,-1.0,0.0));
#222=ORIENTED_EDGE('',*,*,#332,.T.);
#223=ORIENTED_EDGE('',*,*,#339,.T.);
#224=ORIENTED_EDGE('',*,*,#334,.F.);
#225=ORIENTED_EDGE('',*,*,#338,.F.);
#226=CARTESIAN_POINT('',(27.372097079107,-63.9999999998699,-0.169999999999987));
#227=DIRECTION('',(1.0,0.0,0.0));
#228=DIRECTION('',(0.0,-1.0,0.0));
#229=ORIENTED_EDGE('',*,*,#330,.T.);
#230=ORIENTED_EDGE('',*,*,#339,.F.);
#231=ORIENTED_EDGE('',*,*,#331,.T.);
#232=ORIENTED_EDGE('',*,*,#340,.T.);
#233=CARTESIAN_POINT('',(16.997097079102,1.304982788497E-10,-0.169999999999987));
#234=DIRECTION('',(-1.0,1.94336474737746E-15,-0.0));
#235=DIRECTION('',(-1.94336474737746E-15,-1.0,0.0));
#236=ORIENTED_EDGE('',*,*,#326,.T.);
#237=ORIENTED_EDGE('',*,*,#340,.F.);
#238=ORIENTED_EDGE('',*,*,#328,.T.);
#239=ORIENTED_EDGE('',*,*,#322,.T.);
#240=ORIENTED_EDGE('',*,*,#341,.T.);
#241=CARTESIAN_POINT('',(3.35683494421403,1.304982788497E-10,-0.169999999999987));
#242=DIRECTION('',(-1.0,1.94336474737746E-15,-0.0));
#243=DIRECTION('',(-1.94336474737746E-15,-1.0,0.0));
#244=ORIENTED_EDGE('',*,*,#321,.T.);
#245=ORIENTED_EDGE('',*,*,#342,.T.);
#246=ORIENTED_EDGE('',*,*,#324,.T.);
#247=ORIENTED_EDGE('',*,*,#327,.F.);
#248=ORIENTED_EDGE('',*,*,#341,.F.);
#249=CARTESIAN_POINT('',(0.122097079098012,1.304982788497E-10,-0.169999999999987));
#250=DIRECTION('',(1.0,-1.94336474737746E-15,0.0));
#251=DIRECTION('',(0.0,0.0,-1.0));
#252=ORIENTED_EDGE('',*,*,#343,.T.);
#253=ORIENTED_EDGE('',*,*,#318,.T.);
#254=ORIENTED_EDGE('',*,*,#342,.F.);
#255=ORIENTED_EDGE('',*,*,#325,.F.);
#256=CARTESIAN_POINT('',(-0.377902920901988,-66.5789937805439,-0.169999999999987));
#257=DIRECTION('',(1.0,0.0,0.0));
#258=DIRECTION('',(0.0,-1.0,0.0));
#259=ORIENTED_EDGE('',*,*,#317,.T.);
#260=ORIENTED_EDGE('',*,*,#344,.T.);
#261=ORIENTED_EDGE('',*,*,#319,.T.);
#262=ORIENTED_EDGE('',*,*,#343,.F.);
#263=CARTESIAN_POINT('',(28.872097079102,1.30398802866694E-10,-0.169999999999987));
#264=DIRECTION('',(-1.0,1.94336474737746E-15,-0.0));
#265=DIRECTION('',(-1.94336474737746E-15,-1.0,0.0));
#266=ORIENTED_EDGE('',*,*,#344,.F.);
#267=ORIENTED_EDGE('',*,*,#320,.F.);
#268=ORIENTED_EDGE('',*,*,#345,.T.);
#269=ORIENTED_EDGE('',*,*,#314,.T.);
#270=ORIENTED_EDGE('',*,*,#346,.T.);
#271=CARTESIAN_POINT('',(58.122097079111,-66.3747869404519,-0.169999999999987));
#272=DIRECTION('',(-1.0,8.3407274097972E-12,0.0));
#273=DIRECTION('',(8.3407274097972E-12,1.0,0.0));
#274=ORIENTED_EDGE('',*,*,#313,.T.);
#275=ORIENTED_EDGE('',*,*,#347,.T.);
#276=ORIENTED_EDGE('',*,*,#312,.T.);
#277=ORIENTED_EDGE('',*,*,#315,.T.);
#278=ORIENTED_EDGE('',*,*,#345,.F.);
#279=ORIENTED_EDGE('',*,*,#346,.F.);
#280=CARTESIAN_POINT('',(57.622097079116,1.30398802866694E-10,-0.169999999999987));
#281=DIRECTION('',(1.0,-1.94336474737746E-15,0.0));
#282=DIRECTION('',(0.0,0.0,-1.0));
#283=ORIENTED_EDGE('',*,*,#309,.T.);
#284=ORIENTED_EDGE('',*,*,#347,.F.);
#285=ORIENTED_EDGE('',*,*,#316,.F.);
#286=ORIENTED_EDGE('',*,*,#310,.T.);
#287=ORIENTED_EDGE('',*,*,#348,.T.);
#288=CARTESIAN_POINT('',(54.387359214,1.30398802866694E-10,-0.169999999999987));
#289=DIRECTION('',(1.0,-1.94336474737746E-15,-0.0));
#290=DIRECTION('',(-1.94336474737746E-15,-1.0,0.0));
#291=ORIENTED_EDGE('',*,*,#305,.T.);
#292=ORIENTED_EDGE('',*,*,#348,.F.);
#293=ORIENTED_EDGE('',*,*,#307,.T.);
#294=ORIENTED_EDGE('',*,*,#349,.T.);
#295=CARTESIAN_POINT('',(40.747097079111,1.30398802866694E-10,-0.169999999999987));
#296=DIRECTION('',(1.0,-1.94336474737746E-15,-0.0));
#297=DIRECTION('',(-1.94336474737746E-15,-1.0,0.0));
#298=ORIENTED_EDGE('',*,*,#306,.F.);
#299=ORIENTED_EDGE('',*,*,#349,.F.);
#300=ORIENTED_EDGE('',*,*,#336,.T.);
#301=ORIENTED_EDGE('',*,*,#337,.T.);
#302=CARTESIAN_POINT('',(30.372097079107,-63.9999999998699,-0.169999999999987));
#303=DIRECTION('',(-1.0,0.0,0.0));
#304=DIRECTION('',(0.0,0.0,-1.0));
#305=EDGE_CURVE('',#350,#351,#352,.T.);
#306=EDGE_CURVE('',#350,#353,#354,.T.);
#307=EDGE_CURVE('',#355,#353,#356,.T.);
#308=EDGE_CURVE('',#351,#355,#357,.T.);
#309=EDGE_CURVE('',#351,#358,#359,.T.);
#310=EDGE_CURVE('',#360,#355,#361,.T.);
#311=EDGE_CURVE('',#362,#360,#363,.T.);
#312=EDGE_CURVE('',#358,#362,#364,.T.);
#313=EDGE_CURVE('',#365,#366,#367,.T.);
#314=EDGE_CURVE('',#368,#365,#369,.T.);
#315=EDGE_CURVE('',#362,#368,#370,.T.);
#316=EDGE_CURVE('',#360,#366,#371,.T.);
#317=EDGE_CURVE('',#372,#373,#374,.T.);
#318=EDGE_CURVE('',#375,#372,#376,.T.);
#319=EDGE_CURVE('',#377,#375,#378,.T.);
#320=EDGE_CURVE('',#377,#373,#379,.T.);
#321=EDGE_CURVE('',#380,#381,#382,.T.);
#322=EDGE_CURVE('',#383,#380,#384,.T.);
#323=EDGE_CURVE('',#385,#383,#386,.T.);
#324=EDGE_CURVE('',#387,#385,#388,.T.);
#325=EDGE_CURVE('',#387,#381,#389,.T.);
#326=EDGE_CURVE('',#390,#391,#392,.T.);
#327=EDGE_CURVE('',#390,#385,#393,.T.);
#328=EDGE_CURVE('',#394,#383,#395,.T.);
#329=EDGE_CURVE('',#391,#394,#396,.T.);
#330=EDGE_CURVE('',#391,#397,#398,.T.);
#331=EDGE_CURVE('',#399,#394,#400,.T.);
#332=EDGE_CURVE('',#397,#399,#401,.T.);
#333=EDGE_CURVE('',#402,#403,#404,.T.);
#334=EDGE_CURVE('',#402,#405,#406,.T.);
#335=EDGE_CURVE('',#407,#405,#408,.T.);
#336=EDGE_CURVE('',#403,#407,#409,.T.);
#337=EDGE_CURVE('',#407,#403,#410,.T.);
#338=EDGE_CURVE('',#405,#402,#411,.T.);
#339=EDGE_CURVE('',#399,#397,#412,.T.);
#340=EDGE_CURVE('',#394,#391,#413,.T.);
#341=EDGE_CURVE('',#380,#390,#414,.T.);
#342=EDGE_CURVE('',#381,#387,#415,.T.);
#343=EDGE_CURVE('',#372,#375,#416,.T.);
#344=EDGE_CURVE('',#373,#377,#417,.T.);
#345=EDGE_CURVE('',#418,#368,#419,.T.);
#346=EDGE_CURVE('',#365,#418,#420,.T.);
#347=EDGE_CURVE('',#366,#358,#421,.T.);
#348=EDGE_CURVE('',#355,#351,#422,.T.);
#349=EDGE_CURVE('',#353,#350,#423,.T.);
#350=VERTEX_POINT('',#424);
#351=VERTEX_POINT('',#425);
#352=LINE('',#426,#427);
#353=VERTEX_POINT('',#428);
#354=CIRCLE('',#429,64.75);
#355=VERTEX_POINT('',#430);
#356=LINE('',#431,#432);
#357=CIRCLE('',#433,64.9310825066583);
#358=VERTEX_POINT('',#434);
#359=LINE('',#435,#436);
#360=VERTEX_POINT('',#437);
#361=LINE('',#438,#439);
#362=VERTEX_POINT('',#440);
#363=CIRCLE('',#441,65.3305064819536);
#364=CIRCLE('',#442,65.3305064819536);
#365=VERTEX_POINT('',#443);
#366=VERTEX_POINT('',#444);
#367=CIRCLE('',#445,0.5);
#368=VERTEX_POINT('',#446);
#369=CIRCLE('',#447,65.8295738811646);
#370=CIRCLE('',#448,0.5);
#371=CIRCLE('',#449,65.3305064819536);
#372=VERTEX_POINT('',#450);
#373=VERTEX_POINT('',#451);
#374=LINE('',#452,#453);
#375=VERTEX_POINT('',#454);
#376=CIRCLE('',#455,67.3284136801841);
#377=VERTEX_POINT('',#456);
#378=LINE('',#457,#458);
#379=CIRCLE('',#459,66.92);
#380=VERTEX_POINT('',#460);
#381=VERTEX_POINT('',#461);
#382=CIRCLE('',#462,0.5);
#383=VERTEX_POINT('',#463);
#384=CIRCLE('',#464,65.3305064819537);
#385=VERTEX_POINT('',#465);
#386=CIRCLE('',#466,65.3305064819537);
#387=VERTEX_POINT('',#467);
#388=CIRCLE('',#468,0.5);
#389=CIRCLE('',#469,65.8295738811646);
#390=VERTEX_POINT('',#470);
#391=VERTEX_POINT('',#471);
#392=LINE('',#472,#473);
#393=CIRCLE('',#474,65.3305064819537);
#394=VERTEX_POINT('',#475);
#395=LINE('',#476,#477);
#396=CIRCLE('',#478,64.9310825066583);
#397=VERTEX_POINT('',#479);
#398=LINE('',#480,#481);
#399=VERTEX_POINT('',#482);
#400=LINE('',#483,#484);
#401=CIRCLE('',#485,64.75);
#402=VERTEX_POINT('',#486);
#403=VERTEX_POINT('',#487);
#404=LINE('',#488,#489);
#405=VERTEX_POINT('',#490);
#406=CIRCLE('',#491,63.25);
#407=VERTEX_POINT('',#492);
#408=LINE('',#493,#494);
#409=CIRCLE('',#495,63.25);
#410=CIRCLE('',#496,63.25);
#411=CIRCLE('',#497,63.25);
#412=CIRCLE('',#498,64.75);
#413=CIRCLE('',#499,64.9310825066583);
#414=CIRCLE('',#500,65.3305064819537);
#415=CIRCLE('',#501,65.8295738811646);
#416=CIRCLE('',#502,67.3284136801841);
#417=CIRCLE('',#503,66.92);
#418=VERTEX_POINT('',#504);
#419=CIRCLE('',#505,65.8295738811646);
#420=CIRCLE('',#506,65.8295738811646);
#421=CIRCLE('',#507,65.3305064819536);
#422=CIRCLE('',#508,64.9310825066583);
#423=CIRCLE('',#509,64.75);
#424=CARTESIAN_POINT('',(30.372097079107,-64.7499999998699,-0.169999999999987));
#425=CARTESIAN_POINT('',(51.122097079116,-64.9310825065279,-0.169999999999987));
#426=CARTESIAN_POINT('',(40.747097079111,-64.8405412531989,-0.169999999999995));
#427=VECTOR('',#510,1.0);
#428=CARTESIAN_POINT('',(30.372097079107,64.7500000001304,-0.16999999999998));
#429=AXIS2_PLACEMENT_3D('',#511,#512,#513);
#430=CARTESIAN_POINT('',(51.122097079116,64.9310825067887,-0.16999999999998));
#431=CARTESIAN_POINT('',(40.747097079112,64.8405412534596,-0.16999999999998));
#432=VECTOR('',#514,1.0);
#433=AXIS2_PLACEMENT_3D('',#515,#516,#517);
#434=CARTESIAN_POINT('',(57.652621348883,-65.3305064818229,-0.169999999999987));
#435=CARTESIAN_POINT('',(54.387359213999,-65.1307944941759,-0.169999999999995));
#436=VECTOR('',#518,1.0);
#437=CARTESIAN_POINT('',(57.652621348883,65.330506482084,-0.16999999999998));
#438=CARTESIAN_POINT('',(54.387359214,65.1307944944364,-0.16999999999998));
#439=VECTOR('',#519,1.0);
#440=CARTESIAN_POINT('',(57.652621348883,1.30398802866694E-10,65.1605064819536));
#441=AXIS2_PLACEMENT_3D('',#520,#521,#522);
#442=AXIS2_PLACEMENT_3D('',#523,#524,#525);
#443=CARTESIAN_POINT('',(58.122097079116,1.30398802866694E-10,-65.9995738811646));
#444=CARTESIAN_POINT('',(57.652621348883,1.30398802866694E-10,-65.5005064819536));
#445=AXIS2_PLACEMENT_3D('',#526,#527,#528);
#446=CARTESIAN_POINT('',(58.122097079116,1.30398802866694E-10,65.6595738811646));
#447=AXIS2_PLACEMENT_3D('',#529,#530,#531);
#448=AXIS2_PLACEMENT_3D('',#532,#533,#534);
#449=AXIS2_PLACEMENT_3D('',#535,#536,#537);
#450=CARTESIAN_POINT('',(-0.377902920901988,-67.3284136800539,-0.169999999999987));
#451=CARTESIAN_POINT('',(58.122097079107,-66.9199999998699,-0.169999999999987));
#452=CARTESIAN_POINT('',(28.872097079102,-67.1242068399619,-0.169999999999996));
#453=VECTOR('',#538,1.0);
#454=CARTESIAN_POINT('',(-0.377902920901988,67.3284136803146,-0.169999999999979));
#455=AXIS2_PLACEMENT_3D('',#539,#540,#541);
#456=CARTESIAN_POINT('',(58.122097079107,66.9200000001304,-0.169999999999979));
#457=CARTESIAN_POINT('',(28.872097079103,67.1242068402225,-0.169999999999979));
#458=VECTOR('',#542,1.0);
#459=AXIS2_PLACEMENT_3D('',#543,#544,#545);
#460=CARTESIAN_POINT('',(0.091572809329989,1.304982788497E-10,-65.5005064819537));
#461=CARTESIAN_POINT('',(-0.377902920901988,1.304982788497E-10,-65.9995738811646));
#462=AXIS2_PLACEMENT_3D('',#546,#547,#548);
#463=CARTESIAN_POINT('',(0.091572809329989,65.3305064820842,-0.16999999999998));
#464=AXIS2_PLACEMENT_3D('',#549,#550,#551);
#465=CARTESIAN_POINT('',(0.091572809329989,1.304982788497E-10,65.1605064819537));
#466=AXIS2_PLACEMENT_3D('',#552,#553,#554);
#467=CARTESIAN_POINT('',(-0.377902920901988,1.304982788497E-10,65.6595738811646));
#468=AXIS2_PLACEMENT_3D('',#555,#556,#557);
#469=AXIS2_PLACEMENT_3D('',#558,#559,#560);
#470=CARTESIAN_POINT('',(0.091572809329989,-65.3305064818229,-0.169999999999987));
#471=CARTESIAN_POINT('',(6.62209707909801,-64.9310825065279,-0.169999999999987));
#472=CARTESIAN_POINT('',(3.35683494421403,-65.1307944941759,-0.169999999999995));
#473=VECTOR('',#561,1.0);
#474=AXIS2_PLACEMENT_3D('',#562,#563,#564);
#475=CARTESIAN_POINT('',(6.62209707909801,64.9310825067888,-0.16999999999998));
#476=CARTESIAN_POINT('',(3.35683494421403,65.1307944944365,-0.16999999999998));
#477=VECTOR('',#565,1.0);
#478=AXIS2_PLACEMENT_3D('',#566,#567,#568);
#479=CARTESIAN_POINT('',(27.372097079107,-64.7499999998699,-0.169999999999987));
#480=CARTESIAN_POINT('',(16.997097079102,-64.8405412531989,-0.169999999999995));
#481=VECTOR('',#569,1.0);
#482=CARTESIAN_POINT('',(27.372097079107,64.7500000001304,-0.16999999999998));
#483=CARTESIAN_POINT('',(16.997097079103,64.8405412534596,-0.16999999999998));
#484=VECTOR('',#570,1.0);
#485=AXIS2_PLACEMENT_3D('',#571,#572,#573);
#486=CARTESIAN_POINT('',(27.372097079107,-63.2499999998699,-0.169999999999987));
#487=CARTESIAN_POINT('',(30.372097079107,-63.2499999998699,-0.169999999999987));
#488=CARTESIAN_POINT('',(28.872097079107,-63.2499999998699,-0.169999999999995));
#489=VECTOR('',#574,1.0);
#490=CARTESIAN_POINT('',(27.372097079107,63.2500000001305,-0.16999999999998));
#491=AXIS2_PLACEMENT_3D('',#575,#576,#577);
#492=CARTESIAN_POINT('',(30.372097079107,63.2500000001305,-0.16999999999998));
#493=CARTESIAN_POINT('',(28.872097079107,63.2500000001305,-0.16999999999998));
#494=VECTOR('',#578,1.0);
#495=AXIS2_PLACEMENT_3D('',#579,#580,#581);
#496=AXIS2_PLACEMENT_3D('',#582,#583,#584);
#497=AXIS2_PLACEMENT_3D('',#585,#586,#587);
#498=AXIS2_PLACEMENT_3D('',#588,#589,#590);
#499=AXIS2_PLACEMENT_3D('',#591,#592,#593);
#500=AXIS2_PLACEMENT_3D('',#594,#595,#596);
#501=AXIS2_PLACEMENT_3D('',#597,#598,#599);
#502=AXIS2_PLACEMENT_3D('',#600,#601,#602);
#503=AXIS2_PLACEMENT_3D('',#603,#604,#605);
#504=CARTESIAN_POINT('',(58.122097079116,-65.8295738810339,-0.169999999999987));
#505=AXIS2_PLACEMENT_3D('',#606,#607,#608);
#506=AXIS2_PLACEMENT_3D('',#609,#610,#611);
#507=AXIS2_PLACEMENT_3D('',#612,#613,#614);
#508=AXIS2_PLACEMENT_3D('',#615,#616,#617);
#509=AXIS2_PLACEMENT_3D('',#618,#619,#620);
#510=DIRECTION('',(0.999961923064171,-0.00872653549837547,-1.0683449459992E-18));
#511=CARTESIAN_POINT('',(30.372097079107,1.30398802866694E-10,-0.169999999999987));
#512=DIRECTION('',(-1.0,1.94336474737746E-15,0.0));
#513=DIRECTION('',(-1.94336474737746E-15,-1.0,0.0));
#514=DIRECTION('',(-0.999961923064171,-0.00872653549837158,-1.0683449459992E-18));
#515=CARTESIAN_POINT('',(51.122097079116,1.30398802866694E-10,-0.169999999999987));
#516=DIRECTION('',(-1.0,1.94336474737746E-15,0.0));
#517=DIRECTION('',(-1.94336474737746E-15,-1.0,0.0));
#518=DIRECTION('',(0.998134798421867,-0.0610485395348628,-7.46656823000818E-18));
#519=DIRECTION('',(-0.998134798421867,-0.061048539534859,-7.46656823000818E-18));
#520=CARTESIAN_POINT('',(57.652621348883,1.30398802866694E-10,-0.169999999999987));
#521=DIRECTION('',(-1.0,1.94336474737746E-15,0.0));
#522=DIRECTION('',(-1.94336474737746E-15,-1.0,0.0));
#523=CARTESIAN_POINT('',(57.652621348883,1.30398802866694E-10,-0.169999999999987));
#524=DIRECTION('',(-1.0,1.94336474737746E-15,0.0));
#525=DIRECTION('',(-1.94336474737746E-15,-1.0,0.0));
#526=CARTESIAN_POINT('',(57.622097079116,1.30398802866694E-10,-65.9995738811646));
#527=DIRECTION('',(-1.94336474737746E-15,-1.0,-2.14246133114952E-16));
#528=DIRECTION('',(4.16358382357534E-31,2.14246133114952E-16,-1.0));
#529=CARTESIAN_POINT('',(58.122097079116,1.30398802866694E-10,-0.169999999999987));
#530=DIRECTION('',(-1.0,1.94336474737746E-15,0.0));
#531=DIRECTION('',(-1.94336474737746E-15,-1.0,0.0));
#532=CARTESIAN_POINT('',(57.622097079116,1.30398802866694E-10,65.6595738811646));
#533=DIRECTION('',(-1.94336474737746E-15,-1.0,-2.14246133114952E-16));
#534=DIRECTION('',(-4.16358382357534E-31,-2.14246133114952E-16,1.0));
#535=CARTESIAN_POINT('',(57.652621348883,1.30398802866694E-10,-0.169999999999987));
#536=DIRECTION('',(-1.0,1.94336474737746E-15,0.0));
#537=DIRECTION('',(-1.94336474737746E-15,-1.0,0.0));
#538=DIRECTION('',(0.999975630705395,0.0069812602979597,8.54469595030081E-19));
#539=CARTESIAN_POINT('',(-0.377902920901988,1.304982788497E-10,-0.169999999999987));
#540=DIRECTION('',(-1.0,1.94336474737746E-15,0.0));
#541=DIRECTION('',(-1.94336474737746E-15,-1.0,0.0));
#542=DIRECTION('',(-0.999975630705395,0.00698126029796358,8.54469595030081E-19));
#543=CARTESIAN_POINT('',(58.122097079107,1.30398802866694E-10,-0.169999999999987));
#544=DIRECTION('',(-1.0,1.94336474737746E-15,0.0));
#545=DIRECTION('',(-1.94336474737746E-15,-1.0,0.0));
#546=CARTESIAN_POINT('',(0.122097079098012,1.304982788497E-10,-65.9995738811646));
#547=DIRECTION('',(-1.94336474737746E-15,-1.0,-2.14246133114952E-16));
#548=DIRECTION('',(4.16358382357534E-31,2.14246133114952E-16,-1.0));
#549=CARTESIAN_POINT('',(0.091572809329989,1.304982788497E-10,-0.169999999999987));
#550=DIRECTION('',(-1.0,1.94336474737746E-15,0.0));
#551=DIRECTION('',(-1.94336474737746E-15,-1.0,0.0));
#552=CARTESIAN_POINT('',(0.091572809329989,1.304982788497E-10,-0.169999999999987));
#553=DIRECTION('',(-1.0,1.94336474737746E-15,0.0));
#554=DIRECTION('',(-1.94336474737746E-15,-1.0,0.0));
#555=CARTESIAN_POINT('',(0.122097079098012,1.304982788497E-10,65.6595738811646));
#556=DIRECTION('',(-1.94336474737746E-15,-1.0,-2.14246133114952E-16));
#557=DIRECTION('',(-4.16358382357534E-31,-2.14246133114952E-16,1.0));
#558=CARTESIAN_POINT('',(-0.377902920901988,1.304982788497E-10,-0.169999999999987));
#559=DIRECTION('',(-1.0,1.94336474737746E-15,0.0));
#560=DIRECTION('',(-1.94336474737746E-15,-1.0,0.0));
#561=DIRECTION('',(0.998134798421867,0.0610485395348539,7.46656823000755E-18));
#562=CARTESIAN_POINT('',(0.091572809329989,1.304982788497E-10,-0.169999999999987));
#563=DIRECTION('',(-1.0,1.94336474737746E-15,0.0));
#564=DIRECTION('',(-1.94336474737746E-15,-1.0,0.0));
#565=DIRECTION('',(-0.998134798421867,0.0610485395348577,7.46656823000755E-18));
#566=CARTESIAN_POINT('',(6.62209707909801,1.304982788497E-10,-0.169999999999987));
#567=DIRECTION('',(-1.0,1.94336474737746E-15,0.0));
#568=DIRECTION('',(-1.94336474737746E-15,-1.0,0.0));
#569=DIRECTION('',(0.999961923064171,0.00872653549837146,1.06834494599918E-18));
#570=DIRECTION('',(-0.999961923064171,0.00872653549837535,1.06834494599918E-18));
#571=CARTESIAN_POINT('',(27.372097079107,1.30398802866694E-10,-0.169999999999987));
#572=DIRECTION('',(-1.0,1.94336474737746E-15,0.0));
#573=DIRECTION('',(-1.94336474737746E-15,-1.0,0.0));
#574=DIRECTION('',(1.0,-1.94336474737746E-15,0.0));
#575=CARTESIAN_POINT('',(27.372097079107,1.30398802866694E-10,-0.169999999999987));
#576=DIRECTION('',(-1.0,1.94336474737746E-15,0.0));
#577=DIRECTION('',(-1.94336474737746E-15,-1.0,0.0));
#578=DIRECTION('',(-1.0,1.94336474737746E-15,-0.0));
#579=CARTESIAN_POINT('',(30.372097079107,1.30398802866694E-10,-0.169999999999987));
#580=DIRECTION('',(-1.0,1.94336474737746E-15,0.0));
#581=DIRECTION('',(-1.94336474737746E-15,-1.0,0.0));
#582=CARTESIAN_POINT('',(30.372097079107,1.30398802866694E-10,-0.169999999999987));
#583=DIRECTION('',(-1.0,1.94336474737746E-15,0.0));
#584=DIRECTION('',(-1.94336474737746E-15,-1.0,0.0));
#585=CARTESIAN_POINT('',(27.372097079107,1.30398802866694E-10,-0.169999999999987));
#586=DIRECTION('',(-1.0,1.94336474737746E-15,0.0));
#587=DIRECTION('',(-1.94336474737746E-15,-1.0,0.0));
#588=CARTESIAN_POINT('',(27.372097079107,1.30398802866694E-10,-0.169999999999987));
#589=DIRECTION('',(-1.0,1.94336474737746E-15,0.0));
#590=DIRECTION('',(-1.94336474737746E-15,-1.0,0.0));
#591=CARTESIAN_POINT('',(6.62209707909801,1.304982788497E-10,-0.169999999999987));
#592=DIRECTION('',(-1.0,1.94336474737746E-15,0.0));
#593=DIRECTION('',(-1.94336474737746E-15,-1.0,0.0));
#594=CARTESIAN_POINT('',(0.091572809329989,1.304982788497E-10,-0.169999999999987));
#595=DIRECTION('',(-1.0,1.94336474737746E-15,0.0));
#596=DIRECTION('',(-1.94336474737746E-15,-1.0,0.0));
#597=CARTESIAN_POINT('',(-0.377902920901988,1.304982788497E-10,-0.169999999999987));
#598=DIRECTION('',(-1.0,1.94336474737746E-15,0.0));
#599=DIRECTION('',(-1.94336474737746E-15,-1.0,0.0));
#600=CARTESIAN_POINT('',(-0.377902920901988,1.304982788497E-10,-0.169999999999987));
#601=DIRECTION('',(-1.0,1.94336474737746E-15,0.0));
#602=DIRECTION('',(-1.94336474737746E-15,-1.0,0.0));
#603=CARTESIAN_POINT('',(58.122097079107,1.30398802866694E-10,-0.169999999999987));
#604=DIRECTION('',(-1.0,1.94336474737746E-15,0.0));
#605=DIRECTION('',(-1.94336474737746E-15,-1.0,0.0));
#606=CARTESIAN_POINT('',(58.122097079116,1.30398802866694E-10,-0.169999999999987));
#607=DIRECTION('',(-1.0,1.94336474737746E-15,0.0));
#608=DIRECTION('',(-1.94336474737746E-15,-1.0,0.0));
#609=CARTESIAN_POINT('',(58.122097079116,1.30398802866694E-10,-0.169999999999987));
#610=DIRECTION('',(-1.0,1.94336474737746E-15,0.0));
#611=DIRECTION('',(-1.94336474737746E-15,-1.0,0.0));
#612=CARTESIAN_POINT('',(57.652621348883,1.30398802866694E-10,-0.169999999999987));
#613=DIRECTION('',(-1.0,1.94336474737746E-15,0.0));
#614=DIRECTION('',(-1.94336474737746E-15,-1.0,0.0));
#615=CARTESIAN_POINT('',(51.122097079116,1.30398802866694E-10,-0.169999999999987));
#616=DIRECTION('',(-1.0,1.94336474737746E-15,0.0));
#617=DIRECTION('',(-1.94336474737746E-15,-1.0,0.0));
#618=CARTESIAN_POINT('',(30.372097079107,1.30398802866694E-10,-0.169999999999987));
#619=DIRECTION('',(-1.0,1.94336474737746E-15,0.0));
#620=DIRECTION('',(-1.94336474737746E-15,-1.0,0.0));
ENDSEC;
END-ISO-10303-21;
